0
SECTION
2
ENTITIES
0
LINE
8
0
10
0.3597339
20
-0.0608976
30
0.0000000
11
0.3597339
21
-0.0608976
31
0.0000000
0
LINE
8
0
10
0.3597339
20
-0.0608976
30
0.0000000
11
0.3600940
21
-0.0609586
31
0.0000000
0
LINE
8
0
10
0.3600940
20
-0.0609586
30
0.0000000
11
0.3746105
21
-0.0584777
31
0.0000000
0
LINE
8
0
10
0.3746105
20
-0.0584777
30
0.0000000
11
0.3820319
21
-0.0565580
31
0.0000000
0
LINE
8
0
10
0.3820319
20
-0.0565580
30
0.0000000
11
0.3882484
21
-0.0546488
31
0.0000000
0
LINE
8
0
10
0.3882484
20
-0.0546488
30
0.0000000
11
0.3938235
21
-0.0527146
31
0.0000000
0
LINE
8
0
10
0.3938235
20
-0.0527146
30
0.0000000
11
0.3989767
21
-0.0507459
31
0.0000000
0
LINE
8
0
10
0.3989767
20
-0.0507459
30
0.0000000
11
0.4038210
21
-0.0487400
31
0.0000000
0
LINE
8
0
10
0.4038210
20
-0.0487400
30
0.0000000
11
0.4084239
21
-0.0466967
31
0.0000000
0
LINE
8
0
10
0.4084239
20
-0.0466967
30
0.0000000
11
0.4128298
21
-0.0446166
31
0.0000000
0
LINE
8
0
10
0.4128298
20
-0.0446166
30
0.0000000
11
0.4170693
21
-0.0425008
31
0.0000000
0
LINE
8
0
10
0.4170693
20
-0.0425008
30
0.0000000
11
0.4211651
21
-0.0403505
31
0.0000000
0
LINE
8
0
10
0.4211651
20
-0.0403505
30
0.0000000
11
0.4251345
21
-0.0381668
31
0.0000000
0
LINE
8
0
10
0.4251345
20
-0.0381668
30
0.0000000
11
0.4289906
21
-0.0359512
31
0.0000000
0
LINE
8
0
10
0.4289906
20
-0.0359512
30
0.0000000
11
0.4327444
21
-0.0337046
31
0.0000000
0
LINE
8
0
10
0.4327444
20
-0.0337046
30
0.0000000
11
0.4364045
21
-0.0314283
31
0.0000000
0
LINE
8
0
10
0.4364045
20
-0.0314283
30
0.0000000
11
0.4364045
21
0.0314283
31
0.0000000
0
LINE
8
0
10
0.4364045
20
0.0314283
30
0.0000000
11
0.4327444
21
0.0337046
31
0.0000000
0
LINE
8
0
10
0.4327444
20
0.0337046
30
0.0000000
11
0.4289906
21
0.0359512
31
0.0000000
0
LINE
8
0
10
0.4289906
20
0.0359512
30
0.0000000
11
0.4251345
21
0.0381668
31
0.0000000
0
LINE
8
0
10
0.4251345
20
0.0381668
30
0.0000000
11
0.4211651
21
0.0403505
31
0.0000000
0
LINE
8
0
10
0.4211651
20
0.0403505
30
0.0000000
11
0.4170693
21
0.0425008
31
0.0000000
0
LINE
8
0
10
0.4170693
20
0.0425008
30
0.0000000
11
0.4128298
21
0.0446166
31
0.0000000
0
LINE
8
0
10
0.4128298
20
0.0446166
30
0.0000000
11
0.4084239
21
0.0466967
31
0.0000000
0
LINE
8
0
10
0.4084239
20
0.0466967
30
0.0000000
11
0.4038210
21
0.0487400
31
0.0000000
0
LINE
8
0
10
0.4038210
20
0.0487400
30
0.0000000
11
0.3989767
21
0.0507459
31
0.0000000
0
LINE
8
0
10
0.3989767
20
0.0507459
30
0.0000000
11
0.3938235
21
0.0527146
31
0.0000000
0
LINE
8
0
10
0.3938235
20
0.0527146
30
0.0000000
11
0.3882484
21
0.0546488
31
0.0000000
0
LINE
8
0
10
0.3882484
20
0.0546488
30
0.0000000
11
0.3820319
21
0.0565580
31
0.0000000
0
LINE
8
0
10
0.3820319
20
0.0565580
30
0.0000000
11
0.3746105
21
0.0584777
31
0.0000000
0
LINE
8
0
10
0.3746105
20
0.0584777
30
0.0000000
11
0.3600940
21
0.0609586
31
0.0000000
0
LINE
8
0
10
0.3600940
20
0.0609586
30
0.0000000
11
0.3597339
21
0.0608976
31
0.0000000
0
LINE
8
0
10
0.3597339
20
0.0608976
30
0.0000000
11
0.3468291
21
0.1132546
31
0.0000000
0
LINE
8
0
10
0.3468291
20
0.1132546
30
0.0000000
11
0.3471763
21
0.1133679
31
0.0000000
0
LINE
8
0
10
0.3471763
20
0.1133679
30
0.0000000
11
0.3588771
21
0.1223107
31
0.0000000
0
LINE
8
0
10
0.3588771
20
0.1223107
30
0.0000000
11
0.3645563
21
0.1274595
31
0.0000000
0
LINE
8
0
10
0.3645563
20
0.1274595
30
0.0000000
11
0.3691735
21
0.1320389
31
0.0000000
0
LINE
8
0
10
0.3691735
20
0.1320389
30
0.0000000
11
0.3732111
21
0.1363424
31
0.0000000
0
LINE
8
0
10
0.3732111
20
0.1363424
30
0.0000000
11
0.3768591
21
0.1404804
31
0.0000000
0
LINE
8
0
10
0.3768591
20
0.1404804
30
0.0000000
11
0.3802164
21
0.1445078
31
0.0000000
0
LINE
8
0
10
0.3802164
20
0.1445078
30
0.0000000
11
0.3833425
21
0.1484562
31
0.0000000
0
LINE
8
0
10
0.3833425
20
0.1484562
30
0.0000000
11
0.3862770
21
0.1523455
31
0.0000000
0
LINE
8
0
10
0.3862770
20
0.1523455
30
0.0000000
11
0.3890476
21
0.1561892
31
0.0000000
0
LINE
8
0
10
0.3890476
20
0.1561892
30
0.0000000
11
0.3916750
21
0.1599966
31
0.0000000
0
LINE
8
0
10
0.3916750
20
0.1599966
30
0.0000000
11
0.3941749
21
0.1637748
31
0.0000000
0
LINE
8
0
10
0.3941749
20
0.1637748
30
0.0000000
11
0.3965597
21
0.1675287
31
0.0000000
0
LINE
8
0
10
0.3965597
20
0.1675287
30
0.0000000
11
0.3988394
21
0.1712624
31
0.0000000
0
LINE
8
0
10
0.3988394
20
0.1712624
30
0.0000000
11
0.4010224
21
0.1749789
31
0.0000000
0
LINE
8
0
10
0.4010224
20
0.1749789
30
0.0000000
11
0.3718115
21
0.2306356
31
0.0000000
0
LINE
8
0
10
0.3718115
20
0.2306356
30
0.0000000
11
0.3675128
21
0.2309503
31
0.0000000
0
LINE
8
0
10
0.3675128
20
0.2309503
30
0.0000000
11
0.3631450
21
0.2311951
31
0.0000000
0
LINE
8
0
10
0.3631450
20
0.2311951
30
0.0000000
11
0.3587009
21
0.2313649
31
0.0000000
0
LINE
8
0
10
0.3587009
20
0.2313649
30
0.0000000
11
0.3541714
21
0.2314538
31
0.0000000
0
LINE
8
0
10
0.3541714
20
0.2314538
30
0.0000000
11
0.3495454
21
0.2314544
31
0.0000000
0
LINE
8
0
10
0.3495454
20
0.2314544
30
0.0000000
11
0.3448082
21
0.2313576
31
0.0000000
0
LINE
8
0
10
0.3448082
20
0.2313576
30
0.0000000
11
0.3399404
21
0.2311520
31
0.0000000
0
LINE
8
0
10
0.3399404
20
0.2311520
30
0.0000000
11
0.3349151
21
0.2308221
31
0.0000000
0
LINE
8
0
10
0.3349151
20
0.2308221
30
0.0000000
11
0.3296935
21
0.2303470
31
0.0000000
0
LINE
8
0
10
0.3296935
20
0.2303470
30
0.0000000
11
0.3242157
21
0.2296954
31
0.0000000
0
LINE
8
0
10
0.3242157
20
0.2296954
30
0.0000000
11
0.3183803
21
0.2288172
31
0.0000000
0
LINE
8
0
10
0.3183803
20
0.2288172
30
0.0000000
11
0.3119887
21
0.2276187
31
0.0000000
0
LINE
8
0
10
0.3119887
20
0.2276187
30
0.0000000
11
0.3045251
21
0.2258696
31
0.0000000
0
LINE
8
0
10
0.3045251
20
0.2258696
30
0.0000000
11
0.2905186
21
0.2213202
31
0.0000000
0
LINE
8
0
10
0.2905186
20
0.2213202
30
0.0000000
11
0.2902281
21
0.2210988
31
0.0000000
0
LINE
8
0
10
0.2902281
20
0.2210988
30
0.0000000
11
0.2544699
21
0.2614614
31
0.0000000
0
LINE
8
0
10
0.2544699
20
0.2614614
30
0.0000000
11
0.2547246
21
0.2617232
31
0.0000000
0
LINE
8
0
10
0.2547246
20
0.2617232
30
0.0000000
11
0.2609292
21
0.2750792
31
0.0000000
0
LINE
8
0
10
0.2609292
20
0.2750792
30
0.0000000
11
0.2635652
21
0.2822775
31
0.0000000
0
LINE
8
0
10
0.2635652
20
0.2822775
30
0.0000000
11
0.2655253
21
0.2884781
31
0.0000000
0
LINE
8
0
10
0.2655253
20
0.2884781
30
0.0000000
11
0.2671005
21
0.2941651
31
0.0000000
0
LINE
8
0
10
0.2671005
20
0.2941651
30
0.0000000
11
0.2684077
21
0.2995244
31
0.0000000
0
LINE
8
0
10
0.2684077
20
0.2995244
30
0.0000000
11
0.2695087
21
0.3046507
31
0.0000000
0
LINE
8
0
10
0.2695087
20
0.3046507
30
0.0000000
11
0.2704419
21
0.3095996
31
0.0000000
0
LINE
8
0
10
0.2704419
20
0.3095996
30
0.0000000
11
0.2712328
21
0.3144071
31
0.0000000
0
LINE
8
0
10
0.2712328
20
0.3144071
30
0.0000000
11
0.2718998
21
0.3190981
31
0.0000000
0
LINE
8
0
10
0.2718998
20
0.3190981
30
0.0000000
11
0.2724568
21
0.3236904
31
0.0000000
0
LINE
8
0
10
0.2724568
20
0.3236904
30
0.0000000
11
0.2729146
21
0.3281976
31
0.0000000
0
LINE
8
0
10
0.2729146
20
0.3281976
30
0.0000000
11
0.2732817
21
0.3326298
31
0.0000000
0
LINE
8
0
10
0.2732817
20
0.3326298
30
0.0000000
11
0.2735652
21
0.3369953
31
0.0000000
0
LINE
8
0
10
0.2735652
20
0.3369953
30
0.0000000
11
0.2737709
21
0.3413005
31
0.0000000
0
LINE
8
0
10
0.2737709
20
0.3413005
30
0.0000000
11
0.2220410
21
0.3770071
31
0.0000000
0
LINE
8
0
10
0.2220410
20
0.3770071
30
0.0000000
11
0.2180885
21
0.3752880
31
0.0000000
0
LINE
8
0
10
0.2180885
20
0.3752880
30
0.0000000
11
0.2141072
21
0.3734750
31
0.0000000
0
LINE
8
0
10
0.2141072
20
0.3734750
30
0.0000000
11
0.2100932
21
0.3715600
31
0.0000000
0
LINE
8
0
10
0.2100932
20
0.3715600
30
0.0000000
11
0.2060413
21
0.3695338
31
0.0000000
0
LINE
8
0
10
0.2060413
20
0.3695338
30
0.0000000
11
0.2019449
21
0.3673845
31
0.0000000
0
LINE
8
0
10
0.2019449
20
0.3673845
30
0.0000000
11
0.1977953
21
0.3650974
31
0.0000000
0
LINE
8
0
10
0.1977953
20
0.3650974
30
0.0000000
11
0.1935806
21
0.3626531
31
0.0000000
0
LINE
8
0
10
0.1935806
20
0.3626531
30
0.0000000
11
0.1892842
21
0.3600257
31
0.0000000
0
LINE
8
0
10
0.1892842
20
0.3600257
30
0.0000000
11
0.1848815
21
0.3571783
31
0.0000000
0
LINE
8
0
10
0.1848815
20
0.3571783
30
0.0000000
11
0.1803340
21
0.3540557
31
0.0000000
0
LINE
8
0
10
0.1803340
20
0.3540557
30
0.0000000
11
0.1755751
21
0.3505663
31
0.0000000
0
LINE
8
0
10
0.1755751
20
0.3505663
30
0.0000000
11
0.1704726
21
0.3465347
31
0.0000000
0
LINE
8
0
10
0.1704726
20
0.3465347
30
0.0000000
11
0.1646768
21
0.3415175
31
0.0000000
0
LINE
8
0
10
0.1646768
20
0.3415175
30
0.0000000
11
0.1543888
21
0.3309800
31
0.0000000
0
LINE
8
0
10
0.1543888
20
0.3309800
30
0.0000000
11
0.1542344
21
0.3306490
31
0.0000000
0
LINE
8
0
10
0.1542344
20
0.3306490
30
0.0000000
11
0.1038147
21
0.3497707
31
0.0000000
0
LINE
8
0
10
0.1038147
20
0.3497707
30
0.0000000
11
0.1039186
21
0.3501208
31
0.0000000
0
LINE
8
0
10
0.1039186
20
0.3501208
30
0.0000000
11
0.1032057
21
0.3648304
31
0.0000000
0
LINE
8
0
10
0.1032057
20
0.3648304
30
0.0000000
11
0.1021945
21
0.3724292
31
0.0000000
0
LINE
8
0
10
0.1021945
20
0.3724292
30
0.0000000
11
0.1010486
21
0.3788304
31
0.0000000
0
LINE
8
0
10
0.1010486
20
0.3788304
30
0.0000000
11
0.0998005
21
0.3845981
31
0.0000000
0
LINE
8
0
10
0.0998005
20
0.3845981
30
0.0000000
11
0.0984672
21
0.3899510
31
0.0000000
0
LINE
8
0
10
0.0984672
20
0.3899510
30
0.0000000
11
0.0970599
21
0.3950017
31
0.0000000
0
LINE
8
0
10
0.0970599
20
0.3950017
30
0.0000000
11
0.0955863
21
0.3998174
31
0.0000000
0
LINE
8
0
10
0.0955863
20
0.3998174
30
0.0000000
11
0.0940524
21
0.4044418
31
0.0000000
0
LINE
8
0
10
0.0940524
20
0.4044418
30
0.0000000
11
0.0924631
21
0.4089055
31
0.0000000
0
LINE
8
0
10
0.0924631
20
0.4089055
30
0.0000000
11
0.0908221
21
0.4132307
31
0.0000000
0
LINE
8
0
10
0.0908221
20
0.4132307
30
0.0000000
11
0.0891329
21
0.4174342
31
0.0000000
0
LINE
8
0
10
0.0891329
20
0.4174342
30
0.0000000
11
0.0873981
21
0.4215294
31
0.0000000
0
LINE
8
0
10
0.0873981
20
0.4215294
30
0.0000000
11
0.0856204
21
0.4255266
31
0.0000000
0
LINE
8
0
10
0.0856204
20
0.4255266
30
0.0000000
11
0.0838019
21
0.4294343
31
0.0000000
0
LINE
8
0
10
0.0838019
20
0.4294343
30
0.0000000
11
0.0214036
21
0.4370108
31
0.0000000
0
LINE
8
0
10
0.0214036
20
0.4370108
30
0.0000000
11
0.0187027
21
0.4336518
31
0.0000000
0
LINE
8
0
10
0.0187027
20
0.4336518
30
0.0000000
11
0.0160201
21
0.4301963
31
0.0000000
0
LINE
8
0
10
0.0160201
20
0.4301963
30
0.0000000
11
0.0133557
21
0.4266353
31
0.0000000
0
LINE
8
0
10
0.0133557
20
0.4266353
30
0.0000000
11
0.0107096
21
0.4229581
31
0.0000000
0
LINE
8
0
10
0.0107096
20
0.4229581
30
0.0000000
11
0.0080812
21
0.4191513
31
0.0000000
0
LINE
8
0
10
0.0080812
20
0.4191513
30
0.0000000
11
0.0054698
21
0.4151977
31
0.0000000
0
LINE
8
0
10
0.0054698
20
0.4151977
30
0.0000000
11
0.0028738
21
0.4110747
31
0.0000000
0
LINE
8
0
10
0.0028738
20
0.4110747
30
0.0000000
11
0.0002906
21
0.4067516
31
0.0000000
0
LINE
8
0
10
0.0002906
20
0.4067516
30
0.0000000
11
-0.0022846
21
0.4021844
31
0.0000000
0
LINE
8
0
10
-0.0022846
20
0.4021844
30
0.0000000
11
-0.0048601
21
0.3973062
31
0.0000000
0
LINE
8
0
10
-0.0048601
20
0.3973062
30
0.0000000
11
-0.0074522
21
0.3920048
31
0.0000000
0
LINE
8
0
10
-0.0074522
20
0.3920048
30
0.0000000
11
-0.0100967
21
0.3860638
31
0.0000000
0
LINE
8
0
10
-0.0100967
20
0.3860638
30
0.0000000
11
-0.0128971
21
0.3789279
31
0.0000000
0
LINE
8
0
10
-0.0128971
20
0.3789279
30
0.0000000
11
-0.0171096
21
0.3648163
31
0.0000000
0
LINE
8
0
10
-0.0171096
20
0.3648163
30
0.0000000
11
-0.0170925
21
0.3644515
31
0.0000000
0
LINE
8
0
10
-0.0170925
20
0.3644515
30
0.0000000
11
-0.0706232
21
0.3579517
31
0.0000000
0
LINE
8
0
10
-0.0706232
20
0.3579517
30
0.0000000
11
-0.0706939
21
0.3583100
31
0.0000000
0
LINE
8
0
10
-0.0706939
20
0.3583100
30
0.0000000
11
-0.0781611
21
0.3710034
31
0.0000000
0
LINE
8
0
10
-0.0781611
20
0.3710034
30
0.0000000
11
-0.0825878
21
0.3772618
31
0.0000000
0
LINE
8
0
10
-0.0825878
20
0.3772618
30
0.0000000
11
-0.0865772
21
0.3823973
31
0.0000000
0
LINE
8
0
10
-0.0865772
20
0.3823973
30
0.0000000
11
-0.0903627
21
0.3869243
31
0.0000000
0
LINE
8
0
10
-0.0903627
20
0.3869243
30
0.0000000
11
-0.0940308
21
0.3910444
31
0.0000000
0
LINE
8
0
10
-0.0940308
20
0.3910444
30
0.0000000
11
-0.0976242
21
0.3948626
31
0.0000000
0
LINE
8
0
10
-0.0976242
20
0.3948626
30
0.0000000
11
-0.1011669
21
0.3984419
31
0.0000000
0
LINE
8
0
10
-0.1011669
20
0.3984419
30
0.0000000
11
-0.1046742
21
0.4018238
31
0.0000000
0
LINE
8
0
10
-0.1046742
20
0.4018238
30
0.0000000
11
-0.1081559
21
0.4050376
31
0.0000000
0
LINE
8
0
10
-0.1081559
20
0.4050376
30
0.0000000
11
-0.1116189
21
0.4081047
31
0.0000000
0
LINE
8
0
10
-0.1116189
20
0.4081047
30
0.0000000
11
-0.1150681
21
0.4110418
31
0.0000000
0
LINE
8
0
10
-0.1150681
20
0.4110418
30
0.0000000
11
-0.1185073
21
0.4138617
31
0.0000000
0
LINE
8
0
10
-0.1185073
20
0.4138617
30
0.0000000
11
-0.1219389
21
0.4165749
31
0.0000000
0
LINE
8
0
10
-0.1219389
20
0.4165749
30
0.0000000
11
-0.1253652
21
0.4191899
31
0.0000000
0
LINE
8
0
10
-0.1253652
20
0.4191899
30
0.0000000
11
-0.1841371
21
0.3969006
31
0.0000000
0
LINE
8
0
10
-0.1841371
20
0.3969006
30
0.0000000
11
-0.1849676
21
0.3926712
31
0.0000000
0
LINE
8
0
10
-0.1849676
20
0.3926712
30
0.0000000
11
-0.1857371
21
0.3883648
31
0.0000000
0
LINE
8
0
10
-0.1857371
20
0.3883648
30
0.0000000
11
-0.1864414
21
0.3839735
31
0.0000000
0
LINE
8
0
10
-0.1864414
20
0.3839735
30
0.0000000
11
-0.1870756
21
0.3794878
31
0.0000000
0
LINE
8
0
10
-0.1870756
20
0.3794878
30
0.0000000
11
-0.1876337
21
0.3748956
31
0.0000000
0
LINE
8
0
10
-0.1876337
20
0.3748956
30
0.0000000
11
-0.1881087
21
0.3701813
31
0.0000000
0
LINE
8
0
10
-0.1881087
20
0.3701813
30
0.0000000
11
-0.1884913
21
0.3653241
31
0.0000000
0
LINE
8
0
10
-0.1884913
20
0.3653241
30
0.0000000
11
-0.1887696
21
0.3602957
31
0.0000000
0
LINE
8
0
10
-0.1887696
20
0.3602957
30
0.0000000
11
-0.1889273
21
0.3550549
31
0.0000000
0
LINE
8
0
10
-0.1889273
20
0.3550549
30
0.0000000
11
-0.1889408
21
0.3495385
31
0.0000000
0
LINE
8
0
10
-0.1889408
20
0.3495385
30
0.0000000
11
-0.1887723
21
0.3436398
31
0.0000000
0
LINE
8
0
10
-0.1887723
20
0.3436398
30
0.0000000
11
-0.1883530
21
0.3371503
31
0.0000000
0
LINE
8
0
10
-0.1883530
20
0.3371503
30
0.0000000
11
-0.1875163
21
0.3295304
31
0.0000000
0
LINE
8
0
10
-0.1875163
20
0.3295304
30
0.0000000
11
-0.1846883
21
0.3150776
31
0.0000000
0
LINE
8
0
10
-0.1846883
20
0.3150776
30
0.0000000
11
-0.1845037
21
0.3147625
31
0.0000000
0
LINE
8
0
10
-0.1845037
20
0.3147625
30
0.0000000
11
-0.2288821
21
0.2841302
31
0.0000000
0
LINE
8
0
10
-0.2288821
20
0.2841302
30
0.0000000
11
-0.2291113
21
0.2844146
31
0.0000000
0
LINE
8
0
10
-0.2291113
20
0.2844146
30
0.0000000
11
-0.2416220
21
0.2921839
31
0.0000000
0
LINE
8
0
10
-0.2416220
20
0.2921839
30
0.0000000
11
-0.2484501
21
0.2956683
31
0.0000000
0
LINE
8
0
10
-0.2484501
20
0.2956683
30
0.0000000
11
-0.2543692
21
0.2983616
31
0.0000000
0
LINE
8
0
10
-0.2543692
20
0.2983616
30
0.0000000
11
-0.2598249
21
0.3006108
31
0.0000000
0
LINE
8
0
10
-0.2598249
20
0.3006108
30
0.0000000
11
-0.2649876
21
0.3025543
31
0.0000000
0
LINE
8
0
10
-0.2649876
20
0.3025543
30
0.0000000
11
-0.2699437
21
0.3042653
31
0.0000000
0
LINE
8
0
10
-0.2699437
20
0.3042653
30
0.0000000
11
-0.2747441
21
0.3057882
31
0.0000000
0
LINE
8
0
10
-0.2747441
20
0.3057882
30
0.0000000
11
-0.2794212
21
0.3071528
31
0.0000000
0
LINE
8
0
10
-0.2794212
20
0.3071528
30
0.0000000
11
-0.2839976
21
0.3083804
31
0.0000000
0
LINE
8
0
10
-0.2839976
20
0.3083804
30
0.0000000
11
-0.2884893
21
0.3094869
31
0.0000000
0
LINE
8
0
10
-0.2884893
20
0.3094869
30
0.0000000
11
-0.2929084
21
0.3104846
31
0.0000000
0
LINE
8
0
10
-0.2929084
20
0.3104846
30
0.0000000
11
-0.2972641
21
0.3113832
31
0.0000000
0
LINE
8
0
10
-0.2972641
20
0.3113832
30
0.0000000
11
-0.3015636
21
0.3121909
31
0.0000000
0
LINE
8
0
10
-0.3015636
20
0.3121909
30
0.0000000
11
-0.3058126
21
0.3129141
31
0.0000000
0
LINE
8
0
10
-0.3058126
20
0.3129141
30
0.0000000
11
-0.3474942
21
0.2658653
31
0.0000000
0
LINE
8
0
10
-0.3474942
20
0.2658653
30
0.0000000
11
-0.3462641
21
0.2617344
31
0.0000000
0
LINE
8
0
10
-0.3462641
20
0.2617344
30
0.0000000
11
-0.3449441
21
0.2575636
31
0.0000000
0
LINE
8
0
10
-0.3449441
20
0.2575636
30
0.0000000
11
-0.3435270
21
0.2533480
31
0.0000000
0
LINE
8
0
10
-0.3435270
20
0.2533480
30
0.0000000
11
-0.3420039
21
0.2490814
31
0.0000000
0
LINE
8
0
10
-0.3420039
20
0.2490814
30
0.0000000
11
-0.3403641
21
0.2447558
31
0.0000000
0
LINE
8
0
10
-0.3403641
20
0.2447558
30
0.0000000
11
-0.3385938
21
0.2403607
31
0.0000000
0
LINE
8
0
10
-0.3385938
20
0.2403607
30
0.0000000
11
-0.3366754
21
0.2358822
31
0.0000000
0
LINE
8
0
10
-0.3366754
20
0.2358822
30
0.0000000
11
-0.3345850
21
0.2313004
31
0.0000000
0
LINE
8
0
10
-0.3345850
20
0.2313004
30
0.0000000
11
-0.3322891
21
0.2265866
31
0.0000000
0
LINE
8
0
10
-0.3322891
20
0.2265866
30
0.0000000
11
-0.3297374
21
0.2216958
31
0.0000000
0
LINE
8
0
10
-0.3297374
20
0.2216958
30
0.0000000
11
-0.3268470
21
0.2165511
31
0.0000000
0
LINE
8
0
10
-0.3268470
20
0.2165511
30
0.0000000
11
-0.3234599
21
0.2109998
31
0.0000000
0
LINE
8
0
10
-0.3234599
20
0.2109998
30
0.0000000
11
-0.3191779
21
0.2046415
31
0.0000000
0
LINE
8
0
10
-0.3191779
20
0.2046415
30
0.0000000
11
-0.3099573
21
0.1931584
31
0.0000000
0
LINE
8
0
10
-0.3099573
20
0.1931584
30
0.0000000
11
-0.3096473
21
0.1929652
31
0.0000000
0
LINE
8
0
10
-0.3096473
20
0.1929652
30
0.0000000
11
-0.3347070
21
0.1452180
31
0.0000000
0
LINE
8
0
10
-0.3347070
20
0.1452180
30
0.0000000
11
-0.3350420
21
0.1453634
31
0.0000000
0
LINE
8
0
10
-0.3350420
20
0.1453634
30
0.0000000
11
-0.3497303
21
0.1464286
31
0.0000000
0
LINE
8
0
10
-0.3497303
20
0.1464286
30
0.0000000
11
-0.3573956
21
0.1463407
31
0.0000000
0
LINE
8
0
10
-0.3573956
20
0.1463407
30
0.0000000
11
-0.3638883
21
0.1459748
31
0.0000000
0
LINE
8
0
10
-0.3638883
20
0.1459748
30
0.0000000
11
-0.3697643
21
0.1454310
31
0.0000000
0
LINE
8
0
10
-0.3697643
20
0.1454310
30
0.0000000
11
-0.3752389
21
0.1447527
31
0.0000000
0
LINE
8
0
10
-0.3752389
20
0.1447527
30
0.0000000
11
-0.3804224
21
0.1439644
31
0.0000000
0
LINE
8
0
10
-0.3804224
20
0.1439644
30
0.0000000
11
-0.3853806
21
0.1430820
31
0.0000000
0
LINE
8
0
10
-0.3853806
20
0.1430820
30
0.0000000
11
-0.3901562
21
0.1421168
31
0.0000000
0
LINE
8
0
10
-0.3901562
20
0.1421168
30
0.0000000
11
-0.3947789
21
0.1410770
31
0.0000000
0
LINE
8
0
10
-0.3947789
20
0.1410770
30
0.0000000
11
-0.3992704
21
0.1399694
31
0.0000000
0
LINE
8
0
10
-0.3992704
20
0.1399694
30
0.0000000
11
-0.4036469
21
0.1387991
31
0.0000000
0
LINE
8
0
10
-0.4036469
20
0.1387991
30
0.0000000
11
-0.4079213
21
0.1375707
31
0.0000000
0
LINE
8
0
10
-0.4079213
20
0.1375707
30
0.0000000
11
-0.4121036
21
0.1362877
31
0.0000000
0
LINE
8
0
10
-0.4121036
20
0.1362877
30
0.0000000
11
-0.4162021
21
0.1349534
31
0.0000000
0
LINE
8
0
10
-0.4162021
20
0.1349534
30
0.0000000
11
-0.4312446
21
0.0739234
31
0.0000000
0
LINE
8
0
10
-0.4312446
20
0.0739234
30
0.0000000
11
-0.4282357
21
0.0708373
31
0.0000000
0
LINE
8
0
10
-0.4282357
20
0.0708373
30
0.0000000
11
-0.4251286
21
0.0677577
31
0.0000000
0
LINE
8
0
10
-0.4251286
20
0.0677577
30
0.0000000
11
-0.4219147
21
0.0646836
31
0.0000000
0
LINE
8
0
10
-0.4219147
20
0.0646836
30
0.0000000
11
-0.4185833
21
0.0616135
31
0.0000000
0
LINE
8
0
10
-0.4185833
20
0.0616135
30
0.0000000
11
-0.4151211
21
0.0585454
31
0.0000000
0
LINE
8
0
10
-0.4151211
20
0.0585454
30
0.0000000
11
-0.4115111
21
0.0554765
31
0.0000000
0
LINE
8
0
10
-0.4115111
20
0.0554765
30
0.0000000
11
-0.4077311
21
0.0524025
31
0.0000000
0
LINE
8
0
10
-0.4077311
20
0.0524025
30
0.0000000
11
-0.4037509
21
0.0493170
31
0.0000000
0
LINE
8
0
10
-0.4037509
20
0.0493170
30
0.0000000
11
-0.3995274
21
0.0462100
31
0.0000000
0
LINE
8
0
10
-0.3995274
20
0.0462100
30
0.0000000
11
-0.3949952
21
0.0430653
31
0.0000000
0
LINE
8
0
10
-0.3949952
20
0.0430653
30
0.0000000
11
-0.3900449
21
0.0398531
31
0.0000000
0
LINE
8
0
10
-0.3900449
20
0.0398531
30
0.0000000
11
-0.3844660
21
0.0365117
31
0.0000000
0
LINE
8
0
10
-0.3844660
20
0.0365117
30
0.0000000
11
-0.3777196
21
0.0328717
31
0.0000000
0
LINE
8
0
10
-0.3777196
20
0.0328717
30
0.0000000
11
-0.3642187
21
0.0269889
31
0.0000000
0
LINE
8
0
10
-0.3642187
20
0.0269889
30
0.0000000
11
-0.3638545
21
0.0269619
31
0.0000000
0
LINE
8
0
10
-0.3638545
20
0.0269619
30
0.0000000
11
-0.3638545
21
-0.0269619
31
0.0000000
0
LINE
8
0
10
-0.3638545
20
-0.0269619
30
0.0000000
11
-0.3642187
21
-0.0269889
31
0.0000000
0
LINE
8
0
10
-0.3642187
20
-0.0269889
30
0.0000000
11
-0.3777196
21
-0.0328717
31
0.0000000
0
LINE
8
0
10
-0.3777196
20
-0.0328717
30
0.0000000
11
-0.3844660
21
-0.0365117
31
0.0000000
0
LINE
8
0
10
-0.3844660
20
-0.0365117
30
0.0000000
11
-0.3900449
21
-0.0398531
31
0.0000000
0
LINE
8
0
10
-0.3900449
20
-0.0398531
30
0.0000000
11
-0.3949952
21
-0.0430653
31
0.0000000
0
LINE
8
0
10
-0.3949952
20
-0.0430653
30
0.0000000
11
-0.3995274
21
-0.0462100
31
0.0000000
0
LINE
8
0
10
-0.3995274
20
-0.0462100
30
0.0000000
11
-0.4037509
21
-0.0493170
31
0.0000000
0
LINE
8
0
10
-0.4037509
20
-0.0493170
30
0.0000000
11
-0.4077311
21
-0.0524025
31
0.0000000
0
LINE
8
0
10
-0.4077311
20
-0.0524025
30
0.0000000
11
-0.4115111
21
-0.0554765
31
0.0000000
0
LINE
8
0
10
-0.4115111
20
-0.0554765
30
0.0000000
11
-0.4151211
21
-0.0585454
31
0.0000000
0
LINE
8
0
10
-0.4151211
20
-0.0585454
30
0.0000000
11
-0.4185833
21
-0.0616135
31
0.0000000
0
LINE
8
0
10
-0.4185833
20
-0.0616135
30
0.0000000
11
-0.4219147
21
-0.0646836
31
0.0000000
0
LINE
8
0
10
-0.4219147
20
-0.0646836
30
0.0000000
11
-0.4251286
21
-0.0677577
31
0.0000000
0
LINE
8
0
10
-0.4251286
20
-0.0677577
30
0.0000000
11
-0.4282357
21
-0.0708373
31
0.0000000
0
LINE
8
0
10
-0.4282357
20
-0.0708373
30
0.0000000
11
-0.4312446
21
-0.0739234
31
0.0000000
0
LINE
8
0
10
-0.4312446
20
-0.0739234
30
0.0000000
11
-0.4162021
21
-0.1349534
31
0.0000000
0
LINE
8
0
10
-0.4162021
20
-0.1349534
30
0.0000000
11
-0.4121036
21
-0.1362877
31
0.0000000
0
LINE
8
0
10
-0.4121036
20
-0.1362877
30
0.0000000
11
-0.4079213
21
-0.1375707
31
0.0000000
0
LINE
8
0
10
-0.4079213
20
-0.1375707
30
0.0000000
11
-0.4036469
21
-0.1387991
31
0.0000000
0
LINE
8
0
10
-0.4036469
20
-0.1387991
30
0.0000000
11
-0.3992704
21
-0.1399694
31
0.0000000
0
LINE
8
0
10
-0.3992704
20
-0.1399694
30
0.0000000
11
-0.3947789
21
-0.1410770
31
0.0000000
0
LINE
8
0
10
-0.3947789
20
-0.1410770
30
0.0000000
11
-0.3901562
21
-0.1421168
31
0.0000000
0
LINE
8
0
10
-0.3901562
20
-0.1421168
30
0.0000000
11
-0.3853806
21
-0.1430820
31
0.0000000
0
LINE
8
0
10
-0.3853806
20
-0.1430820
30
0.0000000
11
-0.3804224
21
-0.1439644
31
0.0000000
0
LINE
8
0
10
-0.3804224
20
-0.1439644
30
0.0000000
11
-0.3752389
21
-0.1447527
31
0.0000000
0
LINE
8
0
10
-0.3752389
20
-0.1447527
30
0.0000000
11
-0.3697643
21
-0.1454310
31
0.0000000
0
LINE
8
0
10
-0.3697643
20
-0.1454310
30
0.0000000
11
-0.3638883
21
-0.1459748
31
0.0000000
0
LINE
8
0
10
-0.3638883
20
-0.1459748
30
0.0000000
11
-0.3573956
21
-0.1463407
31
0.0000000
0
LINE
8
0
10
-0.3573956
20
-0.1463407
30
0.0000000
11
-0.3497303
21
-0.1464286
31
0.0000000
0
LINE
8
0
10
-0.3497303
20
-0.1464286
30
0.0000000
11
-0.3350420
21
-0.1453634
31
0.0000000
0
LINE
8
0
10
-0.3350420
20
-0.1453634
30
0.0000000
11
-0.3347070
21
-0.1452180
31
0.0000000
0
LINE
8
0
10
-0.3347070
20
-0.1452180
30
0.0000000
11
-0.3096473
21
-0.1929652
31
0.0000000
0
LINE
8
0
10
-0.3096473
20
-0.1929652
30
0.0000000
11
-0.3099573
21
-0.1931584
31
0.0000000
0
LINE
8
0
10
-0.3099573
20
-0.1931584
30
0.0000000
11
-0.3191779
21
-0.2046415
31
0.0000000
0
LINE
8
0
10
-0.3191779
20
-0.2046415
30
0.0000000
11
-0.3234599
21
-0.2109998
31
0.0000000
0
LINE
8
0
10
-0.3234599
20
-0.2109998
30
0.0000000
11
-0.3268470
21
-0.2165511
31
0.0000000
0
LINE
8
0
10
-0.3268470
20
-0.2165511
30
0.0000000
11
-0.3297374
21
-0.2216958
31
0.0000000
0
LINE
8
0
10
-0.3297374
20
-0.2216958
30
0.0000000
11
-0.3322891
21
-0.2265866
31
0.0000000
0
LINE
8
0
10
-0.3322891
20
-0.2265866
30
0.0000000
11
-0.3345850
21
-0.2313004
31
0.0000000
0
LINE
8
0
10
-0.3345850
20
-0.2313004
30
0.0000000
11
-0.3366754
21
-0.2358822
31
0.0000000
0
LINE
8
0
10
-0.3366754
20
-0.2358822
30
0.0000000
11
-0.3385938
21
-0.2403607
31
0.0000000
0
LINE
8
0
10
-0.3385938
20
-0.2403607
30
0.0000000
11
-0.3403641
21
-0.2447558
31
0.0000000
0
LINE
8
0
10
-0.3403641
20
-0.2447558
30
0.0000000
11
-0.3420039
21
-0.2490814
31
0.0000000
0
LINE
8
0
10
-0.3420039
20
-0.2490814
30
0.0000000
11
-0.3435270
21
-0.2533480
31
0.0000000
0
LINE
8
0
10
-0.3435270
20
-0.2533480
30
0.0000000
11
-0.3449441
21
-0.2575636
31
0.0000000
0
LINE
8
0
10
-0.3449441
20
-0.2575636
30
0.0000000
11
-0.3462641
21
-0.2617344
31
0.0000000
0
LINE
8
0
10
-0.3462641
20
-0.2617344
30
0.0000000
11
-0.3474942
21
-0.2658653
31
0.0000000
0
LINE
8
0
10
-0.3474942
20
-0.2658653
30
0.0000000
11
-0.3058126
21
-0.3129141
31
0.0000000
0
LINE
8
0
10
-0.3058126
20
-0.3129141
30
0.0000000
11
-0.3015636
21
-0.3121909
31
0.0000000
0
LINE
8
0
10
-0.3015636
20
-0.3121909
30
0.0000000
11
-0.2972641
21
-0.3113832
31
0.0000000
0
LINE
8
0
10
-0.2972641
20
-0.3113832
30
0.0000000
11
-0.2929084
21
-0.3104846
31
0.0000000
0
LINE
8
0
10
-0.2929084
20
-0.3104846
30
0.0000000
11
-0.2884893
21
-0.3094869
31
0.0000000
0
LINE
8
0
10
-0.2884893
20
-0.3094869
30
0.0000000
11
-0.2839976
21
-0.3083804
31
0.0000000
0
LINE
8
0
10
-0.2839976
20
-0.3083804
30
0.0000000
11
-0.2794212
21
-0.3071528
31
0.0000000
0
LINE
8
0
10
-0.2794212
20
-0.3071528
30
0.0000000
11
-0.2747441
21
-0.3057882
31
0.0000000
0
LINE
8
0
10
-0.2747441
20
-0.3057882
30
0.0000000
11
-0.2699437
21
-0.3042653
31
0.0000000
0
LINE
8
0
10
-0.2699437
20
-0.3042653
30
0.0000000
11
-0.2649876
21
-0.3025543
31
0.0000000
0
LINE
8
0
10
-0.2649876
20
-0.3025543
30
0.0000000
11
-0.2598249
21
-0.3006108
31
0.0000000
0
LINE
8
0
10
-0.2598249
20
-0.3006108
30
0.0000000
11
-0.2543692
21
-0.2983616
31
0.0000000
0
LINE
8
0
10
-0.2543692
20
-0.2983616
30
0.0000000
11
-0.2484501
21
-0.2956683
31
0.0000000
0
LINE
8
0
10
-0.2484501
20
-0.2956683
30
0.0000000
11
-0.2416220
21
-0.2921839
31
0.0000000
0
LINE
8
0
10
-0.2416220
20
-0.2921839
30
0.0000000
11
-0.2291113
21
-0.2844146
31
0.0000000
0
LINE
8
0
10
-0.2291113
20
-0.2844146
30
0.0000000
11
-0.2288821
21
-0.2841302
31
0.0000000
0
LINE
8
0
10
-0.2288821
20
-0.2841302
30
0.0000000
11
-0.1845037
21
-0.3147625
31
0.0000000
0
LINE
8
0
10
-0.1845037
20
-0.3147625
30
0.0000000
11
-0.1846883
21
-0.3150776
31
0.0000000
0
LINE
8
0
10
-0.1846883
20
-0.3150776
30
0.0000000
11
-0.1875163
21
-0.3295304
31
0.0000000
0
LINE
8
0
10
-0.1875163
20
-0.3295304
30
0.0000000
11
-0.1883530
21
-0.3371503
31
0.0000000
0
LINE
8
0
10
-0.1883530
20
-0.3371503
30
0.0000000
11
-0.1887723
21
-0.3436398
31
0.0000000
0
LINE
8
0
10
-0.1887723
20
-0.3436398
30
0.0000000
11
-0.1889408
21
-0.3495385
31
0.0000000
0
LINE
8
0
10
-0.1889408
20
-0.3495385
30
0.0000000
11
-0.1889273
21
-0.3550549
31
0.0000000
0
LINE
8
0
10
-0.1889273
20
-0.3550549
30
0.0000000
11
-0.1887696
21
-0.3602957
31
0.0000000
0
LINE
8
0
10
-0.1887696
20
-0.3602957
30
0.0000000
11
-0.1884913
21
-0.3653241
31
0.0000000
0
LINE
8
0
10
-0.1884913
20
-0.3653241
30
0.0000000
11
-0.1881087
21
-0.3701813
31
0.0000000
0
LINE
8
0
10
-0.1881087
20
-0.3701813
30
0.0000000
11
-0.1876337
21
-0.3748956
31
0.0000000
0
LINE
8
0
10
-0.1876337
20
-0.3748956
30
0.0000000
11
-0.1870756
21
-0.3794878
31
0.0000000
0
LINE
8
0
10
-0.1870756
20
-0.3794878
30
0.0000000
11
-0.1864414
21
-0.3839735
31
0.0000000
0
LINE
8
0
10
-0.1864414
20
-0.3839735
30
0.0000000
11
-0.1857371
21
-0.3883648
31
0.0000000
0
LINE
8
0
10
-0.1857371
20
-0.3883648
30
0.0000000
11
-0.1849676
21
-0.3926712
31
0.0000000
0
LINE
8
0
10
-0.1849676
20
-0.3926712
30
0.0000000
11
-0.1841371
21
-0.3969006
31
0.0000000
0
LINE
8
0
10
-0.1841371
20
-0.3969006
30
0.0000000
11
-0.1253652
21
-0.4191899
31
0.0000000
0
LINE
8
0
10
-0.1253652
20
-0.4191899
30
0.0000000
11
-0.1219389
21
-0.4165749
31
0.0000000
0
LINE
8
0
10
-0.1219389
20
-0.4165749
30
0.0000000
11
-0.1185073
21
-0.4138617
31
0.0000000
0
LINE
8
0
10
-0.1185073
20
-0.4138617
30
0.0000000
11
-0.1150681
21
-0.4110418
31
0.0000000
0
LINE
8
0
10
-0.1150681
20
-0.4110418
30
0.0000000
11
-0.1116189
21
-0.4081047
31
0.0000000
0
LINE
8
0
10
-0.1116189
20
-0.4081047
30
0.0000000
11
-0.1081559
21
-0.4050376
31
0.0000000
0
LINE
8
0
10
-0.1081559
20
-0.4050376
30
0.0000000
11
-0.1046742
21
-0.4018238
31
0.0000000
0
LINE
8
0
10
-0.1046742
20
-0.4018238
30
0.0000000
11
-0.1011669
21
-0.3984419
31
0.0000000
0
LINE
8
0
10
-0.1011669
20
-0.3984419
30
0.0000000
11
-0.0976242
21
-0.3948626
31
0.0000000
0
LINE
8
0
10
-0.0976242
20
-0.3948626
30
0.0000000
11
-0.0940308
21
-0.3910444
31
0.0000000
0
LINE
8
0
10
-0.0940308
20
-0.3910444
30
0.0000000
11
-0.0903627
21
-0.3869243
31
0.0000000
0
LINE
8
0
10
-0.0903627
20
-0.3869243
30
0.0000000
11
-0.0865772
21
-0.3823973
31
0.0000000
0
LINE
8
0
10
-0.0865772
20
-0.3823973
30
0.0000000
11
-0.0825878
21
-0.3772618
31
0.0000000
0
LINE
8
0
10
-0.0825878
20
-0.3772618
30
0.0000000
11
-0.0781611
21
-0.3710034
31
0.0000000
0
LINE
8
0
10
-0.0781611
20
-0.3710034
30
0.0000000
11
-0.0706939
21
-0.3583100
31
0.0000000
0
LINE
8
0
10
-0.0706939
20
-0.3583100
30
0.0000000
11
-0.0706232
21
-0.3579517
31
0.0000000
0
LINE
8
0
10
-0.0706232
20
-0.3579517
30
0.0000000
11
-0.0170925
21
-0.3644515
31
0.0000000
0
LINE
8
0
10
-0.0170925
20
-0.3644515
30
0.0000000
11
-0.0171096
21
-0.3648163
31
0.0000000
0
LINE
8
0
10
-0.0171096
20
-0.3648163
30
0.0000000
11
-0.0128971
21
-0.3789279
31
0.0000000
0
LINE
8
0
10
-0.0128971
20
-0.3789279
30
0.0000000
11
-0.0100967
21
-0.3860638
31
0.0000000
0
LINE
8
0
10
-0.0100967
20
-0.3860638
30
0.0000000
11
-0.0074522
21
-0.3920048
31
0.0000000
0
LINE
8
0
10
-0.0074522
20
-0.3920048
30
0.0000000
11
-0.0048601
21
-0.3973062
31
0.0000000
0
LINE
8
0
10
-0.0048601
20
-0.3973062
30
0.0000000
11
-0.0022846
21
-0.4021844
31
0.0000000
0
LINE
8
0
10
-0.0022846
20
-0.4021844
30
0.0000000
11
0.0002906
21
-0.4067516
31
0.0000000
0
LINE
8
0
10
0.0002906
20
-0.4067516
30
0.0000000
11
0.0028738
21
-0.4110747
31
0.0000000
0
LINE
8
0
10
0.0028738
20
-0.4110747
30
0.0000000
11
0.0054698
21
-0.4151977
31
0.0000000
0
LINE
8
0
10
0.0054698
20
-0.4151977
30
0.0000000
11
0.0080812
21
-0.4191513
31
0.0000000
0
LINE
8
0
10
0.0080812
20
-0.4191513
30
0.0000000
11
0.0107096
21
-0.4229581
31
0.0000000
0
LINE
8
0
10
0.0107096
20
-0.4229581
30
0.0000000
11
0.0133557
21
-0.4266353
31
0.0000000
0
LINE
8
0
10
0.0133557
20
-0.4266353
30
0.0000000
11
0.0160201
21
-0.4301963
31
0.0000000
0
LINE
8
0
10
0.0160201
20
-0.4301963
30
0.0000000
11
0.0187027
21
-0.4336518
31
0.0000000
0
LINE
8
0
10
0.0187027
20
-0.4336518
30
0.0000000
11
0.0214036
21
-0.4370108
31
0.0000000
0
LINE
8
0
10
0.0214036
20
-0.4370108
30
0.0000000
11
0.0838019
21
-0.4294343
31
0.0000000
0
LINE
8
0
10
0.0838019
20
-0.4294343
30
0.0000000
11
0.0856204
21
-0.4255266
31
0.0000000
0
LINE
8
0
10
0.0856204
20
-0.4255266
30
0.0000000
11
0.0873981
21
-0.4215294
31
0.0000000
0
LINE
8
0
10
0.0873981
20
-0.4215294
30
0.0000000
11
0.0891329
21
-0.4174342
31
0.0000000
0
LINE
8
0
10
0.0891329
20
-0.4174342
30
0.0000000
11
0.0908221
21
-0.4132307
31
0.0000000
0
LINE
8
0
10
0.0908221
20
-0.4132307
30
0.0000000
11
0.0924631
21
-0.4089055
31
0.0000000
0
LINE
8
0
10
0.0924631
20
-0.4089055
30
0.0000000
11
0.0940524
21
-0.4044418
31
0.0000000
0
LINE
8
0
10
0.0940524
20
-0.4044418
30
0.0000000
11
0.0955863
21
-0.3998174
31
0.0000000
0
LINE
8
0
10
0.0955863
20
-0.3998174
30
0.0000000
11
0.0970599
21
-0.3950017
31
0.0000000
0
LINE
8
0
10
0.0970599
20
-0.3950017
30
0.0000000
11
0.0984672
21
-0.3899510
31
0.0000000
0
LINE
8
0
10
0.0984672
20
-0.3899510
30
0.0000000
11
0.0998005
21
-0.3845981
31
0.0000000
0
LINE
8
0
10
0.0998005
20
-0.3845981
30
0.0000000
11
0.1010486
21
-0.3788304
31
0.0000000
0
LINE
8
0
10
0.1010486
20
-0.3788304
30
0.0000000
11
0.1021945
21
-0.3724292
31
0.0000000
0
LINE
8
0
10
0.1021945
20
-0.3724292
30
0.0000000
11
0.1032057
21
-0.3648304
31
0.0000000
0
LINE
8
0
10
0.1032057
20
-0.3648304
30
0.0000000
11
0.1039186
21
-0.3501208
31
0.0000000
0
LINE
8
0
10
0.1039186
20
-0.3501208
30
0.0000000
11
0.1038147
21
-0.3497707
31
0.0000000
0
LINE
8
0
10
0.1038147
20
-0.3497707
30
0.0000000
11
0.1542344
21
-0.3306490
31
0.0000000
0
LINE
8
0
10
0.1542344
20
-0.3306490
30
0.0000000
11
0.1543888
21
-0.3309800
31
0.0000000
0
LINE
8
0
10
0.1543888
20
-0.3309800
30
0.0000000
11
0.1646768
21
-0.3415175
31
0.0000000
0
LINE
8
0
10
0.1646768
20
-0.3415175
30
0.0000000
11
0.1704726
21
-0.3465347
31
0.0000000
0
LINE
8
0
10
0.1704726
20
-0.3465347
30
0.0000000
11
0.1755751
21
-0.3505663
31
0.0000000
0
LINE
8
0
10
0.1755751
20
-0.3505663
30
0.0000000
11
0.1803340
21
-0.3540557
31
0.0000000
0
LINE
8
0
10
0.1803340
20
-0.3540557
30
0.0000000
11
0.1848815
21
-0.3571783
31
0.0000000
0
LINE
8
0
10
0.1848815
20
-0.3571783
30
0.0000000
11
0.1892842
21
-0.3600257
31
0.0000000
0
LINE
8
0
10
0.1892842
20
-0.3600257
30
0.0000000
11
0.1935806
21
-0.3626531
31
0.0000000
0
LINE
8
0
10
0.1935806
20
-0.3626531
30
0.0000000
11
0.1977953
21
-0.3650974
31
0.0000000
0
LINE
8
0
10
0.1977953
20
-0.3650974
30
0.0000000
11
0.2019449
21
-0.3673845
31
0.0000000
0
LINE
8
0
10
0.2019449
20
-0.3673845
30
0.0000000
11
0.2060413
21
-0.3695338
31
0.0000000
0
LINE
8
0
10
0.2060413
20
-0.3695338
30
0.0000000
11
0.2100932
21
-0.3715600
31
0.0000000
0
LINE
8
0
10
0.2100932
20
-0.3715600
30
0.0000000
11
0.2141072
21
-0.3734750
31
0.0000000
0
LINE
8
0
10
0.2141072
20
-0.3734750
30
0.0000000
11
0.2180885
21
-0.3752880
31
0.0000000
0
LINE
8
0
10
0.2180885
20
-0.3752880
30
0.0000000
11
0.2220410
21
-0.3770071
31
0.0000000
0
LINE
8
0
10
0.2220410
20
-0.3770071
30
0.0000000
11
0.2737709
21
-0.3413005
31
0.0000000
0
LINE
8
0
10
0.2737709
20
-0.3413005
30
0.0000000
11
0.2735652
21
-0.3369953
31
0.0000000
0
LINE
8
0
10
0.2735652
20
-0.3369953
30
0.0000000
11
0.2732817
21
-0.3326298
31
0.0000000
0
LINE
8
0
10
0.2732817
20
-0.3326298
30
0.0000000
11
0.2729146
21
-0.3281976
31
0.0000000
0
LINE
8
0
10
0.2729146
20
-0.3281976
30
0.0000000
11
0.2724568
21
-0.3236904
31
0.0000000
0
LINE
8
0
10
0.2724568
20
-0.3236904
30
0.0000000
11
0.2718998
21
-0.3190981
31
0.0000000
0
LINE
8
0
10
0.2718998
20
-0.3190981
30
0.0000000
11
0.2712328
21
-0.3144071
31
0.0000000
0
LINE
8
0
10
0.2712328
20
-0.3144071
30
0.0000000
11
0.2704419
21
-0.3095996
31
0.0000000
0
LINE
8
0
10
0.2704419
20
-0.3095996
30
0.0000000
11
0.2695087
21
-0.3046507
31
0.0000000
0
LINE
8
0
10
0.2695087
20
-0.3046507
30
0.0000000
11
0.2684077
21
-0.2995244
31
0.0000000
0
LINE
8
0
10
0.2684077
20
-0.2995244
30
0.0000000
11
0.2671005
21
-0.2941651
31
0.0000000
0
LINE
8
0
10
0.2671005
20
-0.2941651
30
0.0000000
11
0.2655253
21
-0.2884781
31
0.0000000
0
LINE
8
0
10
0.2655253
20
-0.2884781
30
0.0000000
11
0.2635652
21
-0.2822775
31
0.0000000
0
LINE
8
0
10
0.2635652
20
-0.2822775
30
0.0000000
11
0.2609292
21
-0.2750792
31
0.0000000
0
LINE
8
0
10
0.2609292
20
-0.2750792
30
0.0000000
11
0.2547246
21
-0.2617232
31
0.0000000
0
LINE
8
0
10
0.2547246
20
-0.2617232
30
0.0000000
11
0.2544699
21
-0.2614614
31
0.0000000
0
LINE
8
0
10
0.2544699
20
-0.2614614
30
0.0000000
11
0.2902281
21
-0.2210988
31
0.0000000
0
LINE
8
0
10
0.2902281
20
-0.2210988
30
0.0000000
11
0.2905186
21
-0.2213202
31
0.0000000
0
LINE
8
0
10
0.2905186
20
-0.2213202
30
0.0000000
11
0.3045251
21
-0.2258696
31
0.0000000
0
LINE
8
0
10
0.3045251
20
-0.2258696
30
0.0000000
11
0.3119887
21
-0.2276187
31
0.0000000
0
LINE
8
0
10
0.3119887
20
-0.2276187
30
0.0000000
11
0.3183803
21
-0.2288172
31
0.0000000
0
LINE
8
0
10
0.3183803
20
-0.2288172
30
0.0000000
11
0.3242157
21
-0.2296954
31
0.0000000
0
LINE
8
0
10
0.3242157
20
-0.2296954
30
0.0000000
11
0.3296935
21
-0.2303470
31
0.0000000
0
LINE
8
0
10
0.3296935
20
-0.2303470
30
0.0000000
11
0.3349151
21
-0.2308221
31
0.0000000
0
LINE
8
0
10
0.3349151
20
-0.2308221
30
0.0000000
11
0.3399404
21
-0.2311520
31
0.0000000
0
LINE
8
0
10
0.3399404
20
-0.2311520
30
0.0000000
11
0.3448082
21
-0.2313576
31
0.0000000
0
LINE
8
0
10
0.3448082
20
-0.2313576
30
0.0000000
11
0.3495454
21
-0.2314544
31
0.0000000
0
LINE
8
0
10
0.3495454
20
-0.2314544
30
0.0000000
11
0.3541714
21
-0.2314538
31
0.0000000
0
LINE
8
0
10
0.3541714
20
-0.2314538
30
0.0000000
11
0.3587009
21
-0.2313649
31
0.0000000
0
LINE
8
0
10
0.3587009
20
-0.2313649
30
0.0000000
11
0.3631450
21
-0.2311951
31
0.0000000
0
LINE
8
0
10
0.3631450
20
-0.2311951
30
0.0000000
11
0.3675128
21
-0.2309503
31
0.0000000
0
LINE
8
0
10
0.3675128
20
-0.2309503
30
0.0000000
11
0.3718115
21
-0.2306356
31
0.0000000
0
LINE
8
0
10
0.3718115
20
-0.2306356
30
0.0000000
11
0.4010224
21
-0.1749789
31
0.0000000
0
LINE
8
0
10
0.4010224
20
-0.1749789
30
0.0000000
11
0.3988394
21
-0.1712624
31
0.0000000
0
LINE
8
0
10
0.3988394
20
-0.1712624
30
0.0000000
11
0.3965597
21
-0.1675287
31
0.0000000
0
LINE
8
0
10
0.3965597
20
-0.1675287
30
0.0000000
11
0.3941749
21
-0.1637748
31
0.0000000
0
LINE
8
0
10
0.3941749
20
-0.1637748
30
0.0000000
11
0.3916750
21
-0.1599966
31
0.0000000
0
LINE
8
0
10
0.3916750
20
-0.1599966
30
0.0000000
11
0.3890476
21
-0.1561892
31
0.0000000
0
LINE
8
0
10
0.3890476
20
-0.1561892
30
0.0000000
11
0.3862770
21
-0.1523455
31
0.0000000
0
LINE
8
0
10
0.3862770
20
-0.1523455
30
0.0000000
11
0.3833425
21
-0.1484562
31
0.0000000
0
LINE
8
0
10
0.3833425
20
-0.1484562
30
0.0000000
11
0.3802164
21
-0.1445078
31
0.0000000
0
LINE
8
0
10
0.3802164
20
-0.1445078
30
0.0000000
11
0.3768591
21
-0.1404804
31
0.0000000
0
LINE
8
0
10
0.3768591
20
-0.1404804
30
0.0000000
11
0.3732111
21
-0.1363424
31
0.0000000
0
LINE
8
0
10
0.3732111
20
-0.1363424
30
0.0000000
11
0.3691735
21
-0.1320389
31
0.0000000
0
LINE
8
0
10
0.3691735
20
-0.1320389
30
0.0000000
11
0.3645563
21
-0.1274595
31
0.0000000
0
LINE
8
0
10
0.3645563
20
-0.1274595
30
0.0000000
11
0.3588771
21
-0.1223107
31
0.0000000
0
LINE
8
0
10
0.3588771
20
-0.1223107
30
0.0000000
11
0.3471763
21
-0.1133679
31
0.0000000
0
LINE
8
0
10
0.3471763
20
-0.1133679
30
0.0000000
11
0.3468291
21
-0.1132546
31
0.0000000
0
LINE
8
0
10
0.3468291
20
-0.1132546
30
0.0000000
11
0.3597339
21
-0.0608976
31
0.0000000
0
ENDSEC
0
EOF
