  0
SECTION
  2
HEADER
  9
$ACADVER
  1
AC1009
  9
$DWGCODEPAGE
  3
ansi_1252
  9
$INSBASE
 10
0.0
 20
0.0
 30
0.0
  9
$EXTMIN
 10
-1.100000023842
 20
-1.106281513569
 30
0.0
  9
$EXTMAX
 10
3.419374764234
 20
1.100000023842
 30
0.0
  9
$LIMMIN
 10
0.0
 20
0.0
  9
$LIMMAX
 10
12.0
 20
9.0
  9
$ORTHOMODE
 70
     0
  9
$REGENMODE
 70
     1
  9
$FILLMODE
 70
     1
  9
$QTEXTMODE
 70
     0
  9
$MIRRTEXT
 70
     1
  9
$DRAGMODE
 70
     2
  9
$LTSCALE
 40
1.0
  9
$OSMODE
 70
    37
  9
$ATTMODE
 70
     1
  9
$TEXTSIZE
 40
0.2
  9
$TRACEWID
 40
0.05
  9
$TEXTSTYLE
  7
STANDARD
  9
$CLAYER
  8
0
  9
$CELTYPE
  6
BYLAYER
  9
$CECOLOR
 62
   256
  9
$DIMSCALE
 40
1.0
  9
$DIMASZ
 40
0.18
  9
$DIMEXO
 40
0.0625
  9
$DIMDLI
 40
0.38
  9
$DIMRND
 40
0.0
  9
$DIMDLE
 40
0.0
  9
$DIMEXE
 40
0.18
  9
$DIMTP
 40
0.0
  9
$DIMTM
 40
0.0
  9
$DIMTXT
 40
0.18
  9
$DIMCEN
 40
0.09
  9
$DIMTSZ
 40
0.0
  9
$DIMTOL
 70
     0
  9
$DIMLIM
 70
     0
  9
$DIMTIH
 70
     1
  9
$DIMTOH
 70
     1
  9
$DIMSE1
 70
     0
  9
$DIMSE2
 70
     0
  9
$DIMTAD
 70
     0
  9
$DIMZIN
 70
     0
  9
$DIMBLK
  1

  9
$DIMASO
 70
     1
  9
$DIMSHO
 70
     1
  9
$DIMPOST
  1

  9
$DIMAPOST
  1

  9
$DIMALT
 70
     0
  9
$DIMALTD
 70
     2
  9
$DIMALTF
 40
25.4
  9
$DIMLFAC
 40
1.0
  9
$DIMTOFL
 70
     0
  9
$DIMTVP
 40
0.0
  9
$DIMTIX
 70
     0
  9
$DIMSOXD
 70
     0
  9
$DIMSAH
 70
     0
  9
$DIMBLK1
  1

  9
$DIMBLK2
  1

  9
$DIMSTYLE
  2
STANDARD
  9
$DIMCLRD
 70
     0
  9
$DIMCLRE
 70
     0
  9
$DIMCLRT
 70
     0
  9
$DIMTFAC
 40
1.0
  9
$DIMGAP
 40
0.09
  9
$LUNITS
 70
     2
  9
$LUPREC
 70
     4
  9
$SKETCHINC
 40
0.1
  9
$FILLETRAD
 40
0.5
  9
$AUNITS
 70
     0
  9
$AUPREC
 70
     0
  9
$MENU
  1
.
  9
$ELEVATION
 40
0.0
  9
$PELEVATION
 40
0.0
  9
$THICKNESS
 40
0.0
  9
$LIMCHECK
 70
     0
  9
$CHAMFERA
 40
0.5
  9
$CHAMFERB
 40
0.5
  9
$SKPOLY
 70
     0
  9
$TDCREATE
 40
2455163.029029525
  9
$TDUPDATE
 40
2455163.029029537
  9
$TDINDWG
 40
0.0000000116
  9
$TDUSRTIMER
 40
0.0000000116
  9
$USRTIMER
 70
     1
  9
$ANGBASE
 50
0.0
  9
$ANGDIR
 70
     0
  9
$PDMODE
 70
     0
  9
$PDSIZE
 40
0.0
  9
$PLINEWID
 40
0.0
  9
$COORDS
 70
     1
  9
$SPLFRAME
 70
     0
  9
$SPLINETYPE
 70
     6
  9
$SPLINESEGS
 70
     8
  9
$ATTDIA
 70
     0
  9
$ATTREQ
 70
     1
  9
$HANDLING
 70
     1
  9
$HANDSEED
  5
921
  9
$SURFTAB1
 70
     6
  9
$SURFTAB2
 70
     6
  9
$SURFTYPE
 70
     6
  9
$SURFU
 70
     6
  9
$SURFV
 70
     6
  9
$UCSNAME
  2

  9
$UCSORG
 10
0.0
 20
0.0
 30
0.0
  9
$UCSXDIR
 10
1.0
 20
0.0
 30
0.0
  9
$UCSYDIR
 10
0.0
 20
1.0
 30
0.0
  9
$PUCSNAME
  2

  9
$PUCSORG
 10
0.0
 20
0.0
 30
0.0
  9
$PUCSXDIR
 10
1.0
 20
0.0
 30
0.0
  9
$PUCSYDIR
 10
0.0
 20
1.0
 30
0.0
  9
$USERI1
 70
     0
  9
$USERI2
 70
     0
  9
$USERI3
 70
     0
  9
$USERI4
 70
     0
  9
$USERI5
 70
     0
  9
$USERR1
 40
0.0
  9
$USERR2
 40
0.0
  9
$USERR3
 40
0.0
  9
$USERR4
 40
0.0
  9
$USERR5
 40
0.0
  9
$WORLDVIEW
 70
     1
  9
$SHADEDGE
 70
     3
  9
$SHADEDIF
 70
    70
  9
$TILEMODE
 70
     1
  9
$MAXACTVP
 70
    64
  9
$PLIMCHECK
 70
     0
  9
$PEXTMIN
 10
1.000000000000E+20
 20
1.000000000000E+20
 30
1.000000000000E+20
  9
$PEXTMAX
 10
-1.000000000000E+20
 20
-1.000000000000E+20
 30
-1.000000000000E+20
  9
$PLIMMIN
 10
0.0
 20
0.0
  9
$PLIMMAX
 10
12.0
 20
9.0
  9
$UNITMODE
 70
     0
  9
$VISRETAIN
 70
     1
  9
$PLINEGEN
 70
     0
  9
$PSLTSCALE
 70
     1
  0
ENDSEC
  0
SECTION
  2
TABLES
  0
TABLE
  2
VPORT
 70
     1
  0
VPORT
  2
*ACTIVE
 70
     0
 10
0.0
 20
0.0
 11
1.0
 21
1.0
 12
1.159687370196
 22
-0.003140744864
 13
0.0
 23
0.0
 14
0.5
 24
0.5
 15
0.5
 25
0.5
 16
0.0
 26
0.0
 36
1.0
 17
0.0
 27
0.0
 37
0.0
 40
2.316595614282
 41
2.048412549098
 42
50.0
 43
0.0
 44
0.0
 50
0.0
 51
0.0
 71
     0
 72
 20000
 73
     1
 74
     3
 75
     0
 76
     0
 77
     0
 78
     0
  0
ENDTAB
  0
TABLE
  2
LTYPE
 70
     1
  0
LTYPE
  2
CONTINUOUS
 70
     0
  3
Solid line
 72
    65
 73
     0
 40
0.0
  0
ENDTAB
  0
TABLE
  2
LAYER
 70
     4
  0
LAYER
  2
0
 70
     0
 62
     7
  6
CONTINUOUS
  0
LAYER
  2
MERGE
 70
     0
 62
     7
  6
CONTINUOUS
  0
LAYER
  2
STANDARD
 70
     0
 62
     7
  6
CONTINUOUS
  0
LAYER
  2
DEFAULT
 70
     0
 62
     7
  6
CONTINUOUS
  0
ENDTAB
  0
TABLE
  2
STYLE
 70
     4
  0
STYLE
  2
STANDARD
 70
     0
 40
0.0
 41
1.0
 50
0.0
 71
     0
 42
0.2
  3
txt
  4

  0
STYLE
  2
ARIAL
 70
     0
 40
0.0
 41
1.0
 50
0.0
 71
     0
 42
0.2
  3

  4

  0
STYLE
  2
SIMPLEX_DUP__2
 70
     0
 40
0.0
 41
1.0
 50
0.0
 71
     0
 42
0.2
  3
simplex.shx
  4

  0
STYLE
  2
TXT
 70
     0
 40
0.0
 41
1.0
 50
0.0
 71
     0
 42
0.2
  3
txt.shx
  4

  0
ENDTAB
  0
TABLE
  2
VIEW
 70
     0
  0
ENDTAB
  0
TABLE
  2
UCS
 70
     0
  0
ENDTAB
  0
TABLE
  2
APPID
 70
     1
  0
APPID
  2
ACAD
 70
     0
  0
ENDTAB
  0
TABLE
  2
DIMSTYLE
 70
     1
  0
DIMSTYLE
  2
STANDARD
 70
     0
  3

  4

  5

  6

  7

 40
1.0
 41
0.18
 42
0.0625
 43
0.38
 44
0.18
 45
0.0
 46
0.0
 47
0.0
 48
0.0
140
0.18
141
0.09
142
0.0
143
25.4
144
1.0
145
0.0
146
1.0
147
0.09
 71
     0
 72
     0
 73
     1
 74
     1
 75
     0
 76
     0
 77
     0
 78
     0
170
     0
171
     2
172
     0
173
     0
174
     0
175
     0
176
     0
177
     0
178
     0
  0
ENDTAB
  0
ENDSEC
  0
SECTION
  2
BLOCKS
  0
BLOCK
  8
0
  2
$MODEL_SPACE
 70
     0
 10
0.0
 20
0.0
 30
0.0
  3
$MODEL_SPACE
  1

  0
ENDBLK
  5
21
  8
0
  0
BLOCK
 67
     1
  8
0
  2
$PAPER_SPACE
 70
     0
 10
0.0
 20
0.0
 30
0.0
  3
$PAPER_SPACE
  1

  0
ENDBLK
  5
1D
 67
     1
  8
0
  0
ENDSEC
  0
SECTION
  2
ENTITIES
  0
POLYLINE
  5
41
  8
DEFAULT
  6
CONTINUOUS
 62
   254
 66
     1
 10
0.0
 20
0.0
 30
0.0
  0
VERTEX
  5
6DD
  8
DEFAULT
  6
CONTINUOUS
 62
   254
 10
0.457822923097
 20
0.756561075583
 30
0.0
  0
VERTEX
  5
6DE
  8
DEFAULT
  6
CONTINUOUS
 62
   254
 10
0.501232819979
 20
0.828296754639
 30
0.0
  0
VERTEX
  5
6DF
  8
DEFAULT
  6
CONTINUOUS
 62
   254
 10
0.501893473208
 20
0.829310599085
 30
0.0
  0
VERTEX
  5
6E0
  8
DEFAULT
  6
CONTINUOUS
 62
   254
 10
0.504008545066
 20
0.832260979865
 30
0.0
  0
VERTEX
  5
6E1
  8
DEFAULT
  6
CONTINUOUS
 62
   254
 10
0.507769749097
 20
0.837000123762
 30
0.0
  0
VERTEX
  5
6E2
  8
DEFAULT
  6
CONTINUOUS
 62
   254
 10
0.513357421155
 20
0.843366116143
 30
0.0
  0
VERTEX
  5
6E3
  8
DEFAULT
  6
CONTINUOUS
 62
   254
 10
0.520939594417
 20
0.851183680757
 30
0.0
  0
VERTEX
  5
6E4
  8
DEFAULT
  6
CONTINUOUS
 62
   254
 10
0.530671124485
 20
0.86026501616
 30
0.0
  0
VERTEX
  5
6E5
  8
DEFAULT
  6
CONTINUOUS
 62
   254
 10
0.542692867901
 20
0.870410685689
 30
0.0
  0
VERTEX
  5
6E6
  8
DEFAULT
  6
CONTINUOUS
 62
   254
 10
0.557130917212
 20
0.881410557702
 30
0.0
  0
VERTEX
  5
6E7
  8
DEFAULT
  6
CONTINUOUS
 62
   254
 10
0.574095895532
 20
0.893044792634
 30
0.0
  0
VERTEX
  5
6E8
  8
DEFAULT
  6
CONTINUOUS
 62
   254
 10
0.593682313349
 20
0.905084873246
 30
0.0
  0
VERTEX
  5
6E9
  8
DEFAULT
  6
CONTINUOUS
 62
   254
 10
0.611105895194
 20
0.914630846221
 30
0.0
  0
SEQEND
  5
6EA
  8
DEFAULT
  6
CONTINUOUS
 62
   254
  0
ARC
  5
42
  8
DEFAULT
  6
CONTINUOUS
 62
   254
 10
0.000021836395
 20
0.000030055138
 30
0.0
 40
1.099962878450284
 50
51.748592425543
 51
56.251414168382
  0
POLYLINE
  5
43
  8
DEFAULT
  6
CONTINUOUS
 62
   254
 66
     1
 10
0.0
 20
0.0
 30
0.0
  0
VERTEX
  5
6EB
  8
DEFAULT
  6
CONTINUOUS
 62
   254
 10
0.681025712167
 20
0.863830990048
 30
0.0
  0
VERTEX
  5
6EC
  8
DEFAULT
  6
CONTINUOUS
 62
   254
 10
0.681025712167
 20
0.863830990048
 30
0.0
  0
VERTEX
  5
6ED
  8
DEFAULT
  6
CONTINUOUS
 62
   254
 10
0.677331085704
 20
0.844310320499
 30
0.0
  0
VERTEX
  5
6EE
  8
DEFAULT
  6
CONTINUOUS
 62
   254
 10
0.671932767815
 20
0.821961954384
 30
0.0
  0
VERTEX
  5
6EF
  8
DEFAULT
  6
CONTINUOUS
 62
   254
 10
0.666110369396
 20
0.802232139673
 30
0.0
  0
VERTEX
  5
6F0
  8
DEFAULT
  6
CONTINUOUS
 62
   254
 10
0.660110428556
 20
0.785101606637
 30
0.0
  0
VERTEX
  5
6F1
  8
DEFAULT
  6
CONTINUOUS
 62
   254
 10
0.654176209474
 20
0.770533079984
 30
0.0
  0
VERTEX
  5
6F2
  8
DEFAULT
  6
CONTINUOUS
 62
   254
 10
0.648546523817
 20
0.758471572218
 30
0.0
  0
VERTEX
  5
6F3
  8
DEFAULT
  6
CONTINUOUS
 62
   254
 10
0.643454574003
 20
0.748844749535
 30
0.0
  0
VERTEX
  5
6F4
  8
DEFAULT
  6
CONTINUOUS
 62
   254
 10
0.639126822607
 20
0.741563368768
 30
0.0
  0
VERTEX
  5
6F5
  8
DEFAULT
  6
CONTINUOUS
 62
   254
 10
0.635781892089
 20
0.736521783654
 30
0.0
  0
VERTEX
  5
6F6
  8
DEFAULT
  6
CONTINUOUS
 62
   254
 10
0.633629498952
 20
0.733598518443
 30
0.0
  0
VERTEX
  5
6F7
  8
DEFAULT
  6
CONTINUOUS
 62
   254
 10
0.632869426269
 20
0.732656906651
 30
0.0
  0
VERTEX
  5
6F8
  8
DEFAULT
  6
CONTINUOUS
 62
   254
 10
0.578058976037
 20
0.669204236555
 30
0.0
  0
SEQEND
  5
6F9
  8
DEFAULT
  6
CONTINUOUS
 62
   254
  0
ARC
  5
44
  8
DEFAULT
  6
CONTINUOUS
 62
   254
 10
0.000011382931
 20
0.000011382902
 30
0.0
 40
0.8842839449388146
 50
40.820401702378
 51
49.179604891522
  0
POLYLINE
  5
45
  8
DEFAULT
  6
CONTINUOUS
 62
   254
 66
     1
 10
0.0
 20
0.0
 30
0.0
  0
VERTEX
  5
6FA
  8
DEFAULT
  6
CONTINUOUS
 62
   254
 10
0.669205703958
 20
0.578057277257
 30
0.0
  0
VERTEX
  5
6FB
  8
DEFAULT
  6
CONTINUOUS
 62
   254
 10
0.732658513191
 20
0.632867566414
 30
0.0
  0
VERTEX
  5
6FC
  8
DEFAULT
  6
CONTINUOUS
 62
   254
 10
0.733600126913
 20
0.633627636706
 30
0.0
  0
VERTEX
  5
6FD
  8
DEFAULT
  6
CONTINUOUS
 62
   254
 10
0.736523397587
 20
0.635780022423
 30
0.0
  0
VERTEX
  5
6FE
  8
DEFAULT
  6
CONTINUOUS
 62
   254
 10
0.741564991193
 20
0.639124940143
 30
0.0
  0
VERTEX
  5
6FF
  8
DEFAULT
  6
CONTINUOUS
 62
   254
 10
0.748846382946
 20
0.643452673055
 30
0.0
  0
VERTEX
  5
700
  8
DEFAULT
  6
CONTINUOUS
 62
   254
 10
0.758473218555
 20
0.64854459843
 30
0.0
  0
VERTEX
  5
701
  8
DEFAULT
  6
CONTINUOUS
 62
   254
 10
0.770534740611
 20
0.65417425347
 30
0.0
  0
VERTEX
  5
702
  8
DEFAULT
  6
CONTINUOUS
 62
   254
 10
0.785103282328
 20
0.660108435569
 30
0.0
  0
VERTEX
  5
703
  8
DEFAULT
  6
CONTINUOUS
 62
   254
 10
0.802233830595
 20
0.666108332923
 30
0.0
  0
VERTEX
  5
704
  8
DEFAULT
  6
CONTINUOUS
 62
   254
 10
0.821963660086
 20
0.671930681258
 30
0.0
  0
VERTEX
  5
705
  8
DEFAULT
  6
CONTINUOUS
 62
   254
 10
0.844312039904
 20
0.677328942416
 30
0.0
  0
VERTEX
  5
706
  8
DEFAULT
  6
CONTINUOUS
 62
   254
 10
0.863832718833
 20
0.681023519325
 30
0.0
  0
SEQEND
  5
707
  8
DEFAULT
  6
CONTINUOUS
 62
   254
  0
ARC
  5
46
  8
DEFAULT
  6
CONTINUOUS
 62
   254
 10
0.000030055194
 20
0.000021836318
 30
0.0
 40
1.099962878449809
 50
33.748592425554
 51
38.251414168392
  0
POLYLINE
  5
47
  8
DEFAULT
  6
CONTINUOUS
 62
   254
 66
     1
 10
0.0
 20
0.0
 30
0.0
  0
VERTEX
  5
708
  8
DEFAULT
  6
CONTINUOUS
 62
   254
 10
0.914632397513
 20
0.611103573397
 30
0.0
  0
VERTEX
  5
709
  8
DEFAULT
  6
CONTINUOUS
 62
   254
 10
0.914632397513
 20
0.611103573397
 30
0.0
  0
VERTEX
  5
70A
  8
DEFAULT
  6
CONTINUOUS
 62
   254
 10
0.905086380309
 20
0.593680015784
 30
0.0
  0
VERTEX
  5
70B
  8
DEFAULT
  6
CONTINUOUS
 62
   254
 10
0.893046249977
 20
0.574093628531
 30
0.0
  0
VERTEX
  5
70C
  8
DEFAULT
  6
CONTINUOUS
 62
   254
 10
0.881411971978
 20
0.557128679745
 30
0.0
  0
VERTEX
  5
70D
  8
DEFAULT
  6
CONTINUOUS
 62
   254
 10
0.870412063314
 20
0.542690658358
 30
0.0
  0
VERTEX
  5
70E
  8
DEFAULT
  6
CONTINUOUS
 62
   254
 10
0.860266363269
 20
0.530668940696
 30
0.0
  0
VERTEX
  5
70F
  8
DEFAULT
  6
CONTINUOUS
 62
   254
 10
0.851185003162
 20
0.520937433681
 30
0.0
  0
VERTEX
  5
710
  8
DEFAULT
  6
CONTINUOUS
 62
   254
 10
0.843367419301
 20
0.513355280264
 30
0.0
  0
VERTEX
  5
711
  8
DEFAULT
  6
CONTINUOUS
 62
   254
 10
0.837001412735
 20
0.507767624366
 30
0.0
  0
VERTEX
  5
712
  8
DEFAULT
  6
CONTINUOUS
 62
   254
 10
0.83226225929
 20
0.504006432366
 30
0.0
  0
VERTEX
  5
713
  8
DEFAULT
  6
CONTINUOUS
 62
   254
 10
0.829311873142
 20
0.501891367997
 30
0.0
  0
VERTEX
  5
714
  8
DEFAULT
  6
CONTINUOUS
 62
   254
 10
0.828298027019
 20
0.501230717342
 30
0.0
  0
VERTEX
  5
715
  8
DEFAULT
  6
CONTINUOUS
 62
   254
 10
0.756562237766
 20
0.457821002561
 30
0.0
  0
SEQEND
  5
716
  8
DEFAULT
  6
CONTINUOUS
 62
   254
  0
ARC
  5
48
  8
DEFAULT
  6
CONTINUOUS
 62
   254
 10
0.000014343321
 20
0.000007308263
 30
0.0
 40
0.8842839449390311
 50
22.820401702393
 51
31.179604891538
  0
POLYLINE
  5
49
  8
DEFAULT
  6
CONTINUOUS
 62
   254
 66
     1
 10
0.0
 20
0.0
 30
0.0
  0
VERTEX
  5
717
  8
DEFAULT
  6
CONTINUOUS
 62
   254
 10
0.815081967886
 20
0.342969205071
 30
0.0
  0
VERTEX
  5
718
  8
DEFAULT
  6
CONTINUOUS
 62
   254
 10
0.8923664864
 20
0.37548889134
 30
0.0
  0
VERTEX
  5
719
  8
DEFAULT
  6
CONTINUOUS
 62
   254
 10
0.893496888903
 20
0.375920786502
 30
0.0
  0
VERTEX
  5
71A
  8
DEFAULT
  6
CONTINUOUS
 62
   254
 10
0.896942208292
 20
0.377064486646
 30
0.0
  0
VERTEX
  5
71B
  8
DEFAULT
  6
CONTINUOUS
 62
   254
 10
0.902770685163
 20
0.378687754337
 30
0.0
  0
VERTEX
  5
71C
  8
DEFAULT
  6
CONTINUOUS
 62
   254
 10
0.911033043255
 20
0.38055359913
 30
0.0
  0
VERTEX
  5
71D
  8
DEFAULT
  6
CONTINUOUS
 62
   254
 10
0.921762199467
 20
0.382421452134
 30
0.0
  0
VERTEX
  5
71E
  8
DEFAULT
  6
CONTINUOUS
 62
   254
 10
0.934973047695
 20
0.38404835695
 30
0.0
  0
VERTEX
  5
71F
  8
DEFAULT
  6
CONTINUOUS
 62
   254
 10
0.950662317344
 20
0.385190172531
 30
0.0
  0
VERTEX
  5
720
  8
DEFAULT
  6
CONTINUOUS
 62
   254
 10
0.968808507148
 20
0.385602783469
 30
0.0
  0
VERTEX
  5
721
  8
DEFAULT
  6
CONTINUOUS
 62
   254
 10
0.989371894633
 20
0.385043313183
 30
0.0
  0
VERTEX
  5
722
  8
DEFAULT
  6
CONTINUOUS
 62
   254
 10
1.012294621326
 20
0.383271335474
 30
0.0
  0
VERTEX
  5
723
  8
DEFAULT
  6
CONTINUOUS
 62
   254
 10
1.032001577275
 20
0.380752865388
 30
0.0
  0
SEQEND
  5
724
  8
DEFAULT
  6
CONTINUOUS
 62
   254
  0
ARC
  5
4A
  8
DEFAULT
  6
CONTINUOUS
 62
   254
 10
0.000035331981
 20
0.000011480008
 30
0.0
 40
1.0999628784504
 50
15.748592425479
 51
20.251414168317
  0
POLYLINE
  5
4B
  8
DEFAULT
  6
CONTINUOUS
 62
   254
 66
     1
 10
0.0
 20
0.0
 30
0.0
  0
VERTEX
  5
725
  8
DEFAULT
  6
CONTINUOUS
 62
   254
 10
1.058708491173
 20
0.298557081173
 30
0.0
  0
VERTEX
  5
726
  8
DEFAULT
  6
CONTINUOUS
 62
   254
 10
1.058708491173
 20
0.298557081173
 30
0.0
  0
VERTEX
  5
727
  8
DEFAULT
  6
CONTINUOUS
 62
   254
 10
1.044245513901
 20
0.284936174713
 30
0.0
  0
VERTEX
  5
728
  8
DEFAULT
  6
CONTINUOUS
 62
   254
 10
1.026742142972
 20
0.270029018373
 30
0.0
  0
VERTEX
  5
729
  8
DEFAULT
  6
CONTINUOUS
 62
   254
 10
1.010434829585
 20
0.257489582899
 30
0.0
  0
VERTEX
  5
72A
  8
DEFAULT
  6
CONTINUOUS
 62
   254
 10
0.995511700798
 20
0.24715736729
 30
0.0
  0
VERTEX
  5
72B
  8
DEFAULT
  6
CONTINUOUS
 62
   254
 10
0.982147651598
 20
0.238859228106
 30
0.0
  0
VERTEX
  5
72C
  8
DEFAULT
  6
CONTINUOUS
 62
   254
 10
0.970503563843
 20
0.23241030955
 30
0.0
  0
VERTEX
  5
72D
  8
DEFAULT
  6
CONTINUOUS
 62
   254
 10
0.960725585511
 20
0.227615019403
 30
0.0
  0
VERTEX
  5
72E
  8
DEFAULT
  6
CONTINUOUS
 62
   254
 10
0.952944472852
 20
0.224268047066
 30
0.0
  0
VERTEX
  5
72F
  8
DEFAULT
  6
CONTINUOUS
 62
   254
 10
0.94727499784
 20
0.222155419859
 30
0.0
  0
VERTEX
  5
730
  8
DEFAULT
  6
CONTINUOUS
 62
   254
 10
0.943815423034
 20
0.221055593568
 30
0.0
  0
VERTEX
  5
731
  8
DEFAULT
  6
CONTINUOUS
 62
   254
 10
0.942647045792
 20
0.220740573139
 30
0.0
  0
VERTEX
  5
732
  8
DEFAULT
  6
CONTINUOUS
 62
   254
 10
0.861007916384
 20
0.201623059011
 30
0.0
  0
SEQEND
  5
733
  8
DEFAULT
  6
CONTINUOUS
 62
   254
  0
ARC
  5
4C
  8
DEFAULT
  6
CONTINUOUS
 62
   254
 10
0.000015899686
 20
0.000002518242
 30
0.0
 40
0.8842839449391158
 50
4.820401702348
 51
13.179604891492
  0
POLYLINE
  5
4D
  8
DEFAULT
  6
CONTINUOUS
 62
   254
 66
     1
 10
0.0
 20
0.0
 30
0.0
  0
VERTEX
  5
734
  8
DEFAULT
  6
CONTINUOUS
 62
   254
 10
0.881172329787
 20
0.074308917486
 30
0.0
  0
VERTEX
  5
735
  8
DEFAULT
  6
CONTINUOUS
 62
   254
 10
0.964723410437
 20
0.081354747397
 30
0.0
  0
VERTEX
  5
736
  8
DEFAULT
  6
CONTINUOUS
 62
   254
 10
0.965931950049
 20
0.081416190521
 30
0.0
  0
VERTEX
  5
737
  8
DEFAULT
  6
CONTINUOUS
 62
   254
 10
0.969562066285
 20
0.081439251754
 30
0.0
  0
VERTEX
  5
738
  8
DEFAULT
  6
CONTINUOUS
 62
   254
 10
0.975606894497
 20
0.081181972665
 30
0.0
  0
VERTEX
  5
739
  8
DEFAULT
  6
CONTINUOUS
 62
   254
 10
0.984041441749
 20
0.080403287449
 30
0.0
  0
VERTEX
  5
73A
  8
DEFAULT
  6
CONTINUOUS
 62
   254
 10
0.994822674
 20
0.078864229615
 30
0.0
  0
VERTEX
  5
73B
  8
DEFAULT
  6
CONTINUOUS
 62
   254
 10
1.007889678529
 20
0.076329131429
 30
0.0
  0
VERTEX
  5
73C
  8
DEFAULT
  6
CONTINUOUS
 62
   254
 10
1.023163901084
 20
0.072566811627
 30
0.0
  0
VERTEX
  5
73D
  8
DEFAULT
  6
CONTINUOUS
 62
   254
 10
1.040549456935
 20
0.067351746916
 30
0.0
  0
VERTEX
  5
73E
  8
DEFAULT
  6
CONTINUOUS
 62
   254
 10
1.059933514774
 20
0.06046522286
 30
0.0
  0
VERTEX
  5
73F
  8
DEFAULT
  6
CONTINUOUS
 62
   254
 10
1.081186752141
 20
0.051696459808
 30
0.0
  0
VERTEX
  5
740
  8
DEFAULT
  6
CONTINUOUS
 62
   254
 10
1.099150930956
 20
0.043211468125
 30
0.0
  0
SEQEND
  5
741
  8
DEFAULT
  6
CONTINUOUS
 62
   254
  0
ARC
  5
4E
  8
DEFAULT
  6
CONTINUOUS
 62
   254
 10
0.000037150228
 20
-0.000000000046
 30
0.0
 40
1.099962878450242
 50
357.748592425467
 51
2.251414168306
  0
POLYLINE
  5
4F
  8
DEFAULT
  6
CONTINUOUS
 62
   254
 66
     1
 10
0.0
 20
0.0
 30
0.0
  0
VERTEX
  5
742
  8
DEFAULT
  6
CONTINUOUS
 62
   254
 10
1.09915082126
 20
-0.043214258326
 30
0.0
  0
VERTEX
  5
743
  8
DEFAULT
  6
CONTINUOUS
 62
   254
 10
1.09915082126
 20
-0.043214258326
 30
0.0
  0
VERTEX
  5
744
  8
DEFAULT
  6
CONTINUOUS
 62
   254
 10
1.081186620906
 20
-0.051699204406
 30
0.0
  0
VERTEX
  5
745
  8
DEFAULT
  6
CONTINUOUS
 62
   254
 10
1.05993336128
 20
-0.060467913507
 30
0.0
  0
VERTEX
  5
746
  8
DEFAULT
  6
CONTINUOUS
 62
   254
 10
1.040549285959
 20
-0.067354388356
 30
0.0
  0
VERTEX
  5
747
  8
DEFAULT
  6
CONTINUOUS
 62
   254
 10
1.02316371687
 20
-0.072569408934
 30
0.0
  0
VERTEX
  5
748
  8
DEFAULT
  6
CONTINUOUS
 62
   254
 10
1.007889484764
 20
-0.076331689962
 30
0.0
  0
VERTEX
  5
749
  8
DEFAULT
  6
CONTINUOUS
 62
   254
 10
0.9948224738
 20
-0.078866754977
 30
0.0
  0
VERTEX
  5
74A
  8
DEFAULT
  6
CONTINUOUS
 62
   254
 10
0.984041237642
 20
-0.080405785444
 30
0.0
  0
VERTEX
  5
74B
  8
DEFAULT
  6
CONTINUOUS
 62
   254
 10
0.975606688413
 20
-0.081184449248
 30
0.0
  0
VERTEX
  5
74C
  8
DEFAULT
  6
CONTINUOUS
 62
   254
 10
0.969561859548
 20
-0.081441712992
 30
0.0
  0
VERTEX
  5
74D
  8
DEFAULT
  6
CONTINUOUS
 62
   254
 10
0.96593174337
 20
-0.081418642545
 30
0.0
  0
VERTEX
  5
74E
  8
DEFAULT
  6
CONTINUOUS
 62
   254
 10
0.964723203915
 20
-0.081357196352
 30
0.0
  0
VERTEX
  5
74F
  8
DEFAULT
  6
CONTINUOUS
 62
   254
 10
0.88117214115
 20
-0.074311154347
 30
0.0
  0
SEQEND
  5
750
  8
DEFAULT
  6
CONTINUOUS
 62
   254
  0
ARC
  5
50
  8
DEFAULT
  6
CONTINUOUS
 62
   254
 10
0.000015899679
 20
-0.000002518283
 30
0.0
 40
0.8842839449392313
 50
346.82040170236
 51
355.179604891505
  0
POLYLINE
  5
51
  8
DEFAULT
  6
CONTINUOUS
 62
   254
 66
     1
 10
0.0
 20
0.0
 30
0.0
  0
VERTEX
  5
751
  8
DEFAULT
  6
CONTINUOUS
 62
   254
 10
0.86100740456
 20
-0.201625244683
 30
0.0
  0
VERTEX
  5
752
  8
DEFAULT
  6
CONTINUOUS
 62
   254
 10
0.942646485438
 20
-0.220742966053
 30
0.0
  0
VERTEX
  5
753
  8
DEFAULT
  6
CONTINUOUS
 62
   254
 10
0.94381486188
 20
-0.221057989447
 30
0.0
  0
VERTEX
  5
754
  8
DEFAULT
  6
CONTINUOUS
 62
   254
 10
0.947274433894
 20
-0.22215782452
 30
0.0
  0
VERTEX
  5
755
  8
DEFAULT
  6
CONTINUOUS
 62
   254
 10
0.952943903544
 20
-0.22427046612
 30
0.0
  0
VERTEX
  5
756
  8
DEFAULT
  6
CONTINUOUS
 62
   254
 10
0.960725007706
 20
-0.227617458209
 30
0.0
  0
VERTEX
  5
757
  8
DEFAULT
  6
CONTINUOUS
 62
   254
 10
0.970502973865
 20
-0.232412773178
 30
0.0
  0
VERTEX
  5
758
  8
DEFAULT
  6
CONTINUOUS
 62
   254
 10
0.98214704525
 20
-0.238861721292
 30
0.0
  0
VERTEX
  5
759
  8
DEFAULT
  6
CONTINUOUS
 62
   254
 10
0.995511073385
 20
-0.247159894401
 30
0.0
  0
VERTEX
  5
75A
  8
DEFAULT
  6
CONTINUOUS
 62
   254
 10
1.010434175944
 20
-0.257492147892
 30
0.0
  0
VERTEX
  5
75B
  8
DEFAULT
  6
CONTINUOUS
 62
   254
 10
1.026741457498
 20
-0.270031624762
 30
0.0
  0
VERTEX
  5
75C
  8
DEFAULT
  6
CONTINUOUS
 62
   254
 10
1.044244790585
 20
-0.284938825535
 30
0.0
  0
VERTEX
  5
75D
  8
DEFAULT
  6
CONTINUOUS
 62
   254
 10
1.058707733281
 20
-0.298559768709
 30
0.0
  0
SEQEND
  5
75E
  8
DEFAULT
  6
CONTINUOUS
 62
   254
  0
ARC
  5
52
  8
DEFAULT
  6
CONTINUOUS
 62
   254
 10
0.000035331953
 20
-0.000011480097
 30
0.0
 40
1.099962878449407
 50
339.748592425526
 51
344.251414168364
  0
POLYLINE
  5
53
  8
DEFAULT
  6
CONTINUOUS
 62
   254
 66
     1
 10
0.0
 20
0.0
 30
0.0
  0
VERTEX
  5
75F
  8
DEFAULT
  6
CONTINUOUS
 62
   254
 10
1.032000610729
 20
-0.380755485128
 30
0.0
  0
VERTEX
  5
760
  8
DEFAULT
  6
CONTINUOUS
 62
   254
 10
1.032000610729
 20
-0.380755485128
 30
0.0
  0
VERTEX
  5
761
  8
DEFAULT
  6
CONTINUOUS
 62
   254
 10
1.012293648387
 20
-0.383273905188
 30
0.0
  0
VERTEX
  5
762
  8
DEFAULT
  6
CONTINUOUS
 62
   254
 10
0.989370917196
 20
-0.385045824708
 30
0.0
  0
VERTEX
  5
763
  8
DEFAULT
  6
CONTINUOUS
 62
   254
 10
0.96880752829
 20
-0.385605242793
 30
0.0
  0
VERTEX
  5
764
  8
DEFAULT
  6
CONTINUOUS
 62
   254
 10
0.950661339534
 20
-0.385192585791
 30
0.0
  0
VERTEX
  5
765
  8
DEFAULT
  6
CONTINUOUS
 62
   254
 10
0.934972072783
 20
-0.384050730382
 30
0.0
  0
VERTEX
  5
766
  8
DEFAULT
  6
CONTINUOUS
 62
   254
 10
0.921761228685
 20
-0.382423792031
 30
0.0
  0
VERTEX
  5
767
  8
DEFAULT
  6
CONTINUOUS
 62
   254
 10
0.911032077214
 20
-0.380555911791
 30
0.0
  0
VERTEX
  5
768
  8
DEFAULT
  6
CONTINUOUS
 62
   254
 10
0.902769723859
 20
-0.378690046024
 30
0.0
  0
VERTEX
  5
769
  8
DEFAULT
  6
CONTINUOUS
 62
   254
 10
0.896941251109
 20
-0.377066763538
 30
0.0
  0
VERTEX
  5
76A
  8
DEFAULT
  6
CONTINUOUS
 62
   254
 10
0.893495934623
 20
-0.375923054647
 30
0.0
  0
VERTEX
  5
76B
  8
DEFAULT
  6
CONTINUOUS
 62
   254
 10
0.892365533217
 20
-0.375491156616
 30
0.0
  0
VERTEX
  5
76C
  8
DEFAULT
  6
CONTINUOUS
 62
   254
 10
0.815081097254
 20
-0.34297127416
 30
0.0
  0
SEQEND
  5
76D
  8
DEFAULT
  6
CONTINUOUS
 62
   254
  0
ARC
  5
54
  8
DEFAULT
  6
CONTINUOUS
 62
   254
 10
0.000014343301
 20
-0.0000073083
 30
0.0
 40
0.8842839449392605
 50
328.820401702371
 51
337.179604891516
  0
POLYLINE
  5
55
  8
DEFAULT
  6
CONTINUOUS
 62
   254
 66
     1
 10
0.0
 20
0.0
 30
0.0
  0
VERTEX
  5
76E
  8
DEFAULT
  6
CONTINUOUS
 62
   254
 10
0.756561075583
 20
-0.457822923097
 30
0.0
  0
VERTEX
  5
76F
  8
DEFAULT
  6
CONTINUOUS
 62
   254
 10
0.828296754639
 20
-0.501232819979
 30
0.0
  0
VERTEX
  5
770
  8
DEFAULT
  6
CONTINUOUS
 62
   254
 10
0.829310599085
 20
-0.501893473208
 30
0.0
  0
VERTEX
  5
771
  8
DEFAULT
  6
CONTINUOUS
 62
   254
 10
0.832260979865
 20
-0.504008545066
 30
0.0
  0
VERTEX
  5
772
  8
DEFAULT
  6
CONTINUOUS
 62
   254
 10
0.837000123762
 20
-0.507769749097
 30
0.0
  0
VERTEX
  5
773
  8
DEFAULT
  6
CONTINUOUS
 62
   254
 10
0.843366116143
 20
-0.513357421155
 30
0.0
  0
VERTEX
  5
774
  8
DEFAULT
  6
CONTINUOUS
 62
   254
 10
0.851183680757
 20
-0.520939594417
 30
0.0
  0
VERTEX
  5
775
  8
DEFAULT
  6
CONTINUOUS
 62
   254
 10
0.86026501616
 20
-0.530671124485
 30
0.0
  0
VERTEX
  5
776
  8
DEFAULT
  6
CONTINUOUS
 62
   254
 10
0.870410685689
 20
-0.542692867901
 30
0.0
  0
VERTEX
  5
777
  8
DEFAULT
  6
CONTINUOUS
 62
   254
 10
0.881410557702
 20
-0.557130917212
 30
0.0
  0
VERTEX
  5
778
  8
DEFAULT
  6
CONTINUOUS
 62
   254
 10
0.893044792634
 20
-0.574095895532
 30
0.0
  0
VERTEX
  5
779
  8
DEFAULT
  6
CONTINUOUS
 62
   254
 10
0.905084873246
 20
-0.593682313349
 30
0.0
  0
VERTEX
  5
77A
  8
DEFAULT
  6
CONTINUOUS
 62
   254
 10
0.914630846221
 20
-0.611105895194
 30
0.0
  0
SEQEND
  5
77B
  8
DEFAULT
  6
CONTINUOUS
 62
   254
  0
ARC
  5
56
  8
DEFAULT
  6
CONTINUOUS
 62
   254
 10
0.000030055138
 20
-0.000021836395
 30
0.0
 40
1.099962878450284
 50
321.748592425543
 51
326.251414168382
  0
POLYLINE
  5
57
  8
DEFAULT
  6
CONTINUOUS
 62
   254
 66
     1
 10
0.0
 20
0.0
 30
0.0
  0
VERTEX
  5
77C
  8
DEFAULT
  6
CONTINUOUS
 62
   254
 10
0.863830990048
 20
-0.681025712167
 30
0.0
  0
VERTEX
  5
77D
  8
DEFAULT
  6
CONTINUOUS
 62
   254
 10
0.863830990048
 20
-0.681025712167
 30
0.0
  0
VERTEX
  5
77E
  8
DEFAULT
  6
CONTINUOUS
 62
   254
 10
0.844310320499
 20
-0.677331085704
 30
0.0
  0
VERTEX
  5
77F
  8
DEFAULT
  6
CONTINUOUS
 62
   254
 10
0.821961954384
 20
-0.671932767815
 30
0.0
  0
VERTEX
  5
780
  8
DEFAULT
  6
CONTINUOUS
 62
   254
 10
0.802232139673
 20
-0.666110369396
 30
0.0
  0
VERTEX
  5
781
  8
DEFAULT
  6
CONTINUOUS
 62
   254
 10
0.785101606637
 20
-0.660110428556
 30
0.0
  0
VERTEX
  5
782
  8
DEFAULT
  6
CONTINUOUS
 62
   254
 10
0.770533079984
 20
-0.654176209474
 30
0.0
  0
VERTEX
  5
783
  8
DEFAULT
  6
CONTINUOUS
 62
   254
 10
0.758471572218
 20
-0.648546523817
 30
0.0
  0
VERTEX
  5
784
  8
DEFAULT
  6
CONTINUOUS
 62
   254
 10
0.748844749535
 20
-0.643454574003
 30
0.0
  0
VERTEX
  5
785
  8
DEFAULT
  6
CONTINUOUS
 62
   254
 10
0.741563368768
 20
-0.639126822607
 30
0.0
  0
VERTEX
  5
786
  8
DEFAULT
  6
CONTINUOUS
 62
   254
 10
0.736521783654
 20
-0.635781892089
 30
0.0
  0
VERTEX
  5
787
  8
DEFAULT
  6
CONTINUOUS
 62
   254
 10
0.733598518443
 20
-0.633629498952
 30
0.0
  0
VERTEX
  5
788
  8
DEFAULT
  6
CONTINUOUS
 62
   254
 10
0.732656906651
 20
-0.632869426269
 30
0.0
  0
VERTEX
  5
789
  8
DEFAULT
  6
CONTINUOUS
 62
   254
 10
0.669204236555
 20
-0.578058976037
 30
0.0
  0
SEQEND
  5
78A
  8
DEFAULT
  6
CONTINUOUS
 62
   254
  0
ARC
  5
58
  8
DEFAULT
  6
CONTINUOUS
 62
   254
 10
0.000011382902
 20
-0.000011382931
 30
0.0
 40
0.8842839449388146
 50
310.820401702378
 51
319.179604891522
  0
POLYLINE
  5
59
  8
DEFAULT
  6
CONTINUOUS
 62
   254
 66
     1
 10
0.0
 20
0.0
 30
0.0
  0
VERTEX
  5
78B
  8
DEFAULT
  6
CONTINUOUS
 62
   254
 10
0.578057277257
 20
-0.669205703958
 30
0.0
  0
VERTEX
  5
78C
  8
DEFAULT
  6
CONTINUOUS
 62
   254
 10
0.632867566414
 20
-0.732658513191
 30
0.0
  0
VERTEX
  5
78D
  8
DEFAULT
  6
CONTINUOUS
 62
   254
 10
0.633627636706
 20
-0.733600126913
 30
0.0
  0
VERTEX
  5
78E
  8
DEFAULT
  6
CONTINUOUS
 62
   254
 10
0.635780022423
 20
-0.736523397587
 30
0.0
  0
VERTEX
  5
78F
  8
DEFAULT
  6
CONTINUOUS
 62
   254
 10
0.639124940143
 20
-0.741564991193
 30
0.0
  0
VERTEX
  5
790
  8
DEFAULT
  6
CONTINUOUS
 62
   254
 10
0.643452673055
 20
-0.748846382946
 30
0.0
  0
VERTEX
  5
791
  8
DEFAULT
  6
CONTINUOUS
 62
   254
 10
0.64854459843
 20
-0.758473218555
 30
0.0
  0
VERTEX
  5
792
  8
DEFAULT
  6
CONTINUOUS
 62
   254
 10
0.65417425347
 20
-0.770534740611
 30
0.0
  0
VERTEX
  5
793
  8
DEFAULT
  6
CONTINUOUS
 62
   254
 10
0.660108435569
 20
-0.785103282328
 30
0.0
  0
VERTEX
  5
794
  8
DEFAULT
  6
CONTINUOUS
 62
   254
 10
0.666108332923
 20
-0.802233830595
 30
0.0
  0
VERTEX
  5
795
  8
DEFAULT
  6
CONTINUOUS
 62
   254
 10
0.671930681258
 20
-0.821963660086
 30
0.0
  0
VERTEX
  5
796
  8
DEFAULT
  6
CONTINUOUS
 62
   254
 10
0.677328942416
 20
-0.844312039904
 30
0.0
  0
VERTEX
  5
797
  8
DEFAULT
  6
CONTINUOUS
 62
   254
 10
0.681023519325
 20
-0.863832718833
 30
0.0
  0
SEQEND
  5
798
  8
DEFAULT
  6
CONTINUOUS
 62
   254
  0
ARC
  5
5A
  8
DEFAULT
  6
CONTINUOUS
 62
   254
 10
0.000021836318
 20
-0.000030055194
 30
0.0
 40
1.099962878449809
 50
303.748592425554
 51
308.251414168392
  0
POLYLINE
  5
5B
  8
DEFAULT
  6
CONTINUOUS
 62
   254
 66
     1
 10
0.0
 20
0.0
 30
0.0
  0
VERTEX
  5
799
  8
DEFAULT
  6
CONTINUOUS
 62
   254
 10
0.611103573397
 20
-0.914632397513
 30
0.0
  0
VERTEX
  5
79A
  8
DEFAULT
  6
CONTINUOUS
 62
   254
 10
0.611103573397
 20
-0.914632397513
 30
0.0
  0
VERTEX
  5
79B
  8
DEFAULT
  6
CONTINUOUS
 62
   254
 10
0.593680015784
 20
-0.905086380309
 30
0.0
  0
VERTEX
  5
79C
  8
DEFAULT
  6
CONTINUOUS
 62
   254
 10
0.574093628531
 20
-0.893046249977
 30
0.0
  0
VERTEX
  5
79D
  8
DEFAULT
  6
CONTINUOUS
 62
   254
 10
0.557128679745
 20
-0.881411971978
 30
0.0
  0
VERTEX
  5
79E
  8
DEFAULT
  6
CONTINUOUS
 62
   254
 10
0.542690658358
 20
-0.870412063314
 30
0.0
  0
VERTEX
  5
79F
  8
DEFAULT
  6
CONTINUOUS
 62
   254
 10
0.530668940696
 20
-0.860266363269
 30
0.0
  0
VERTEX
  5
7A0
  8
DEFAULT
  6
CONTINUOUS
 62
   254
 10
0.520937433681
 20
-0.851185003162
 30
0.0
  0
VERTEX
  5
7A1
  8
DEFAULT
  6
CONTINUOUS
 62
   254
 10
0.513355280264
 20
-0.843367419301
 30
0.0
  0
VERTEX
  5
7A2
  8
DEFAULT
  6
CONTINUOUS
 62
   254
 10
0.507767624366
 20
-0.837001412735
 30
0.0
  0
VERTEX
  5
7A3
  8
DEFAULT
  6
CONTINUOUS
 62
   254
 10
0.504006432366
 20
-0.83226225929
 30
0.0
  0
VERTEX
  5
7A4
  8
DEFAULT
  6
CONTINUOUS
 62
   254
 10
0.501891367997
 20
-0.829311873142
 30
0.0
  0
VERTEX
  5
7A5
  8
DEFAULT
  6
CONTINUOUS
 62
   254
 10
0.501230717342
 20
-0.828298027019
 30
0.0
  0
VERTEX
  5
7A6
  8
DEFAULT
  6
CONTINUOUS
 62
   254
 10
0.457821002561
 20
-0.756562237766
 30
0.0
  0
SEQEND
  5
7A7
  8
DEFAULT
  6
CONTINUOUS
 62
   254
  0
ARC
  5
5C
  8
DEFAULT
  6
CONTINUOUS
 62
   254
 10
0.000007308263
 20
-0.000014343321
 30
0.0
 40
0.8842839449390311
 50
292.820401702393
 51
301.179604891538
  0
POLYLINE
  5
5D
  8
DEFAULT
  6
CONTINUOUS
 62
   254
 66
     1
 10
0.0
 20
0.0
 30
0.0
  0
VERTEX
  5
7A8
  8
DEFAULT
  6
CONTINUOUS
 62
   254
 10
0.342969205071
 20
-0.815081967886
 30
0.0
  0
VERTEX
  5
7A9
  8
DEFAULT
  6
CONTINUOUS
 62
   254
 10
0.37548889134
 20
-0.8923664864
 30
0.0
  0
VERTEX
  5
7AA
  8
DEFAULT
  6
CONTINUOUS
 62
   254
 10
0.375920786502
 20
-0.893496888903
 30
0.0
  0
VERTEX
  5
7AB
  8
DEFAULT
  6
CONTINUOUS
 62
   254
 10
0.377064486646
 20
-0.896942208292
 30
0.0
  0
VERTEX
  5
7AC
  8
DEFAULT
  6
CONTINUOUS
 62
   254
 10
0.378687754337
 20
-0.902770685163
 30
0.0
  0
VERTEX
  5
7AD
  8
DEFAULT
  6
CONTINUOUS
 62
   254
 10
0.38055359913
 20
-0.911033043255
 30
0.0
  0
VERTEX
  5
7AE
  8
DEFAULT
  6
CONTINUOUS
 62
   254
 10
0.382421452134
 20
-0.921762199467
 30
0.0
  0
VERTEX
  5
7AF
  8
DEFAULT
  6
CONTINUOUS
 62
   254
 10
0.38404835695
 20
-0.934973047695
 30
0.0
  0
VERTEX
  5
7B0
  8
DEFAULT
  6
CONTINUOUS
 62
   254
 10
0.385190172531
 20
-0.950662317344
 30
0.0
  0
VERTEX
  5
7B1
  8
DEFAULT
  6
CONTINUOUS
 62
   254
 10
0.385602783469
 20
-0.968808507148
 30
0.0
  0
VERTEX
  5
7B2
  8
DEFAULT
  6
CONTINUOUS
 62
   254
 10
0.385043313183
 20
-0.989371894633
 30
0.0
  0
VERTEX
  5
7B3
  8
DEFAULT
  6
CONTINUOUS
 62
   254
 10
0.383271335474
 20
-1.012294621326
 30
0.0
  0
VERTEX
  5
7B4
  8
DEFAULT
  6
CONTINUOUS
 62
   254
 10
0.380752865388
 20
-1.032001577275
 30
0.0
  0
SEQEND
  5
7B5
  8
DEFAULT
  6
CONTINUOUS
 62
   254
  0
ARC
  5
5E
  8
DEFAULT
  6
CONTINUOUS
 62
   254
 10
0.000011480008
 20
-0.000035331981
 30
0.0
 40
1.0999628784504
 50
285.748592425479
 51
290.251414168317
  0
POLYLINE
  5
5F
  8
DEFAULT
  6
CONTINUOUS
 62
   254
 66
     1
 10
0.0
 20
0.0
 30
0.0
  0
VERTEX
  5
7B6
  8
DEFAULT
  6
CONTINUOUS
 62
   254
 10
0.298557081173
 20
-1.058708491173
 30
0.0
  0
VERTEX
  5
7B7
  8
DEFAULT
  6
CONTINUOUS
 62
   254
 10
0.298557081173
 20
-1.058708491173
 30
0.0
  0
VERTEX
  5
7B8
  8
DEFAULT
  6
CONTINUOUS
 62
   254
 10
0.284936174713
 20
-1.044245513901
 30
0.0
  0
VERTEX
  5
7B9
  8
DEFAULT
  6
CONTINUOUS
 62
   254
 10
0.270029018373
 20
-1.026742142972
 30
0.0
  0
VERTEX
  5
7BA
  8
DEFAULT
  6
CONTINUOUS
 62
   254
 10
0.257489582899
 20
-1.010434829585
 30
0.0
  0
VERTEX
  5
7BB
  8
DEFAULT
  6
CONTINUOUS
 62
   254
 10
0.24715736729
 20
-0.995511700798
 30
0.0
  0
VERTEX
  5
7BC
  8
DEFAULT
  6
CONTINUOUS
 62
   254
 10
0.238859228106
 20
-0.982147651598
 30
0.0
  0
VERTEX
  5
7BD
  8
DEFAULT
  6
CONTINUOUS
 62
   254
 10
0.23241030955
 20
-0.970503563843
 30
0.0
  0
VERTEX
  5
7BE
  8
DEFAULT
  6
CONTINUOUS
 62
   254
 10
0.227615019403
 20
-0.960725585511
 30
0.0
  0
VERTEX
  5
7BF
  8
DEFAULT
  6
CONTINUOUS
 62
   254
 10
0.224268047066
 20
-0.952944472852
 30
0.0
  0
VERTEX
  5
7C0
  8
DEFAULT
  6
CONTINUOUS
 62
   254
 10
0.222155419859
 20
-0.94727499784
 30
0.0
  0
VERTEX
  5
7C1
  8
DEFAULT
  6
CONTINUOUS
 62
   254
 10
0.221055593568
 20
-0.943815423034
 30
0.0
  0
VERTEX
  5
7C2
  8
DEFAULT
  6
CONTINUOUS
 62
   254
 10
0.220740573139
 20
-0.942647045792
 30
0.0
  0
VERTEX
  5
7C3
  8
DEFAULT
  6
CONTINUOUS
 62
   254
 10
0.201623059011
 20
-0.861007916384
 30
0.0
  0
SEQEND
  5
7C4
  8
DEFAULT
  6
CONTINUOUS
 62
   254
  0
ARC
  5
60
  8
DEFAULT
  6
CONTINUOUS
 62
   254
 10
0.000002518242
 20
-0.000015899686
 30
0.0
 40
0.8842839449391159
 50
274.820401702348
 51
283.179604891492
  0
POLYLINE
  5
61
  8
DEFAULT
  6
CONTINUOUS
 62
   254
 66
     1
 10
0.0
 20
0.0
 30
0.0
  0
VERTEX
  5
7C5
  8
DEFAULT
  6
CONTINUOUS
 62
   254
 10
0.074308917486
 20
-0.881172329787
 30
0.0
  0
VERTEX
  5
7C6
  8
DEFAULT
  6
CONTINUOUS
 62
   254
 10
0.081354747397
 20
-0.964723410437
 30
0.0
  0
VERTEX
  5
7C7
  8
DEFAULT
  6
CONTINUOUS
 62
   254
 10
0.081416190521
 20
-0.965931950049
 30
0.0
  0
VERTEX
  5
7C8
  8
DEFAULT
  6
CONTINUOUS
 62
   254
 10
0.081439251754
 20
-0.969562066285
 30
0.0
  0
VERTEX
  5
7C9
  8
DEFAULT
  6
CONTINUOUS
 62
   254
 10
0.081181972665
 20
-0.975606894497
 30
0.0
  0
VERTEX
  5
7CA
  8
DEFAULT
  6
CONTINUOUS
 62
   254
 10
0.080403287449
 20
-0.984041441749
 30
0.0
  0
VERTEX
  5
7CB
  8
DEFAULT
  6
CONTINUOUS
 62
   254
 10
0.078864229615
 20
-0.994822674
 30
0.0
  0
VERTEX
  5
7CC
  8
DEFAULT
  6
CONTINUOUS
 62
   254
 10
0.076329131429
 20
-1.007889678529
 30
0.0
  0
VERTEX
  5
7CD
  8
DEFAULT
  6
CONTINUOUS
 62
   254
 10
0.072566811627
 20
-1.023163901084
 30
0.0
  0
VERTEX
  5
7CE
  8
DEFAULT
  6
CONTINUOUS
 62
   254
 10
0.067351746916
 20
-1.040549456935
 30
0.0
  0
VERTEX
  5
7CF
  8
DEFAULT
  6
CONTINUOUS
 62
   254
 10
0.06046522286
 20
-1.059933514774
 30
0.0
  0
VERTEX
  5
7D0
  8
DEFAULT
  6
CONTINUOUS
 62
   254
 10
0.051696459808
 20
-1.081186752141
 30
0.0
  0
VERTEX
  5
7D1
  8
DEFAULT
  6
CONTINUOUS
 62
   254
 10
0.043211468125
 20
-1.099150930956
 30
0.0
  0
SEQEND
  5
7D2
  8
DEFAULT
  6
CONTINUOUS
 62
   254
  0
ARC
  5
62
  8
DEFAULT
  6
CONTINUOUS
 62
   254
 10
-0.000000000046
 20
-0.000037150228
 30
0.0
 40
1.099962878450242
 50
267.748592425467
 51
272.251414168306
  0
POLYLINE
  5
63
  8
DEFAULT
  6
CONTINUOUS
 62
   254
 66
     1
 10
0.0
 20
0.0
 30
0.0
  0
VERTEX
  5
7D3
  8
DEFAULT
  6
CONTINUOUS
 62
   254
 10
-0.043214258326
 20
-1.09915082126
 30
0.0
  0
VERTEX
  5
7D4
  8
DEFAULT
  6
CONTINUOUS
 62
   254
 10
-0.043214258326
 20
-1.09915082126
 30
0.0
  0
VERTEX
  5
7D5
  8
DEFAULT
  6
CONTINUOUS
 62
   254
 10
-0.051699204406
 20
-1.081186620906
 30
0.0
  0
VERTEX
  5
7D6
  8
DEFAULT
  6
CONTINUOUS
 62
   254
 10
-0.060467913507
 20
-1.05993336128
 30
0.0
  0
VERTEX
  5
7D7
  8
DEFAULT
  6
CONTINUOUS
 62
   254
 10
-0.067354388356
 20
-1.040549285959
 30
0.0
  0
VERTEX
  5
7D8
  8
DEFAULT
  6
CONTINUOUS
 62
   254
 10
-0.072569408934
 20
-1.02316371687
 30
0.0
  0
VERTEX
  5
7D9
  8
DEFAULT
  6
CONTINUOUS
 62
   254
 10
-0.076331689962
 20
-1.007889484764
 30
0.0
  0
VERTEX
  5
7DA
  8
DEFAULT
  6
CONTINUOUS
 62
   254
 10
-0.078866754977
 20
-0.9948224738
 30
0.0
  0
VERTEX
  5
7DB
  8
DEFAULT
  6
CONTINUOUS
 62
   254
 10
-0.080405785444
 20
-0.984041237642
 30
0.0
  0
VERTEX
  5
7DC
  8
DEFAULT
  6
CONTINUOUS
 62
   254
 10
-0.081184449248
 20
-0.975606688413
 30
0.0
  0
VERTEX
  5
7DD
  8
DEFAULT
  6
CONTINUOUS
 62
   254
 10
-0.081441712992
 20
-0.969561859548
 30
0.0
  0
VERTEX
  5
7DE
  8
DEFAULT
  6
CONTINUOUS
 62
   254
 10
-0.081418642545
 20
-0.96593174337
 30
0.0
  0
VERTEX
  5
7DF
  8
DEFAULT
  6
CONTINUOUS
 62
   254
 10
-0.081357196352
 20
-0.964723203915
 30
0.0
  0
VERTEX
  5
7E0
  8
DEFAULT
  6
CONTINUOUS
 62
   254
 10
-0.074311154347
 20
-0.88117214115
 30
0.0
  0
SEQEND
  5
7E1
  8
DEFAULT
  6
CONTINUOUS
 62
   254
  0
ARC
  5
64
  8
DEFAULT
  6
CONTINUOUS
 62
   254
 10
-0.000002518283
 20
-0.000015899679
 30
0.0
 40
0.8842839449392313
 50
256.82040170236
 51
265.179604891505
  0
POLYLINE
  5
65
  8
DEFAULT
  6
CONTINUOUS
 62
   254
 66
     1
 10
0.0
 20
0.0
 30
0.0
  0
VERTEX
  5
7E2
  8
DEFAULT
  6
CONTINUOUS
 62
   254
 10
-0.201625244683
 20
-0.86100740456
 30
0.0
  0
VERTEX
  5
7E3
  8
DEFAULT
  6
CONTINUOUS
 62
   254
 10
-0.220742966053
 20
-0.942646485438
 30
0.0
  0
VERTEX
  5
7E4
  8
DEFAULT
  6
CONTINUOUS
 62
   254
 10
-0.221057989447
 20
-0.94381486188
 30
0.0
  0
VERTEX
  5
7E5
  8
DEFAULT
  6
CONTINUOUS
 62
   254
 10
-0.22215782452
 20
-0.947274433894
 30
0.0
  0
VERTEX
  5
7E6
  8
DEFAULT
  6
CONTINUOUS
 62
   254
 10
-0.22427046612
 20
-0.952943903544
 30
0.0
  0
VERTEX
  5
7E7
  8
DEFAULT
  6
CONTINUOUS
 62
   254
 10
-0.227617458209
 20
-0.960725007706
 30
0.0
  0
VERTEX
  5
7E8
  8
DEFAULT
  6
CONTINUOUS
 62
   254
 10
-0.232412773178
 20
-0.970502973865
 30
0.0
  0
VERTEX
  5
7E9
  8
DEFAULT
  6
CONTINUOUS
 62
   254
 10
-0.238861721292
 20
-0.98214704525
 30
0.0
  0
VERTEX
  5
7EA
  8
DEFAULT
  6
CONTINUOUS
 62
   254
 10
-0.247159894401
 20
-0.995511073385
 30
0.0
  0
VERTEX
  5
7EB
  8
DEFAULT
  6
CONTINUOUS
 62
   254
 10
-0.257492147892
 20
-1.010434175944
 30
0.0
  0
VERTEX
  5
7EC
  8
DEFAULT
  6
CONTINUOUS
 62
   254
 10
-0.270031624762
 20
-1.026741457498
 30
0.0
  0
VERTEX
  5
7ED
  8
DEFAULT
  6
CONTINUOUS
 62
   254
 10
-0.284938825535
 20
-1.044244790585
 30
0.0
  0
VERTEX
  5
7EE
  8
DEFAULT
  6
CONTINUOUS
 62
   254
 10
-0.298559768709
 20
-1.058707733281
 30
0.0
  0
SEQEND
  5
7EF
  8
DEFAULT
  6
CONTINUOUS
 62
   254
  0
ARC
  5
66
  8
DEFAULT
  6
CONTINUOUS
 62
   254
 10
-0.000011480097
 20
-0.000035331953
 30
0.0
 40
1.099962878449407
 50
249.748592425526
 51
254.251414168364
  0
POLYLINE
  5
67
  8
DEFAULT
  6
CONTINUOUS
 62
   254
 66
     1
 10
0.0
 20
0.0
 30
0.0
  0
VERTEX
  5
7F0
  8
DEFAULT
  6
CONTINUOUS
 62
   254
 10
-0.380755485128
 20
-1.032000610729
 30
0.0
  0
VERTEX
  5
7F1
  8
DEFAULT
  6
CONTINUOUS
 62
   254
 10
-0.380755485128
 20
-1.032000610729
 30
0.0
  0
VERTEX
  5
7F2
  8
DEFAULT
  6
CONTINUOUS
 62
   254
 10
-0.383273905188
 20
-1.012293648387
 30
0.0
  0
VERTEX
  5
7F3
  8
DEFAULT
  6
CONTINUOUS
 62
   254
 10
-0.385045824708
 20
-0.989370917196
 30
0.0
  0
VERTEX
  5
7F4
  8
DEFAULT
  6
CONTINUOUS
 62
   254
 10
-0.385605242793
 20
-0.96880752829
 30
0.0
  0
VERTEX
  5
7F5
  8
DEFAULT
  6
CONTINUOUS
 62
   254
 10
-0.385192585791
 20
-0.950661339534
 30
0.0
  0
VERTEX
  5
7F6
  8
DEFAULT
  6
CONTINUOUS
 62
   254
 10
-0.384050730382
 20
-0.934972072783
 30
0.0
  0
VERTEX
  5
7F7
  8
DEFAULT
  6
CONTINUOUS
 62
   254
 10
-0.382423792031
 20
-0.921761228685
 30
0.0
  0
VERTEX
  5
7F8
  8
DEFAULT
  6
CONTINUOUS
 62
   254
 10
-0.380555911791
 20
-0.911032077214
 30
0.0
  0
VERTEX
  5
7F9
  8
DEFAULT
  6
CONTINUOUS
 62
   254
 10
-0.378690046024
 20
-0.902769723859
 30
0.0
  0
VERTEX
  5
7FA
  8
DEFAULT
  6
CONTINUOUS
 62
   254
 10
-0.377066763538
 20
-0.896941251109
 30
0.0
  0
VERTEX
  5
7FB
  8
DEFAULT
  6
CONTINUOUS
 62
   254
 10
-0.375923054647
 20
-0.893495934623
 30
0.0
  0
VERTEX
  5
7FC
  8
DEFAULT
  6
CONTINUOUS
 62
   254
 10
-0.375491156616
 20
-0.892365533217
 30
0.0
  0
VERTEX
  5
7FD
  8
DEFAULT
  6
CONTINUOUS
 62
   254
 10
-0.34297127416
 20
-0.815081097254
 30
0.0
  0
SEQEND
  5
7FE
  8
DEFAULT
  6
CONTINUOUS
 62
   254
  0
ARC
  5
68
  8
DEFAULT
  6
CONTINUOUS
 62
   254
 10
-0.0000073083
 20
-0.000014343301
 30
0.0
 40
0.8842839449392605
 50
238.820401702371
 51
247.179604891516
  0
POLYLINE
  5
69
  8
DEFAULT
  6
CONTINUOUS
 62
   254
 66
     1
 10
0.0
 20
0.0
 30
0.0
  0
VERTEX
  5
7FF
  8
DEFAULT
  6
CONTINUOUS
 62
   254
 10
-0.457822923097
 20
-0.756561075583
 30
0.0
  0
VERTEX
  5
800
  8
DEFAULT
  6
CONTINUOUS
 62
   254
 10
-0.501232819979
 20
-0.828296754639
 30
0.0
  0
VERTEX
  5
801
  8
DEFAULT
  6
CONTINUOUS
 62
   254
 10
-0.501893473208
 20
-0.829310599085
 30
0.0
  0
VERTEX
  5
802
  8
DEFAULT
  6
CONTINUOUS
 62
   254
 10
-0.504008545066
 20
-0.832260979865
 30
0.0
  0
VERTEX
  5
803
  8
DEFAULT
  6
CONTINUOUS
 62
   254
 10
-0.507769749097
 20
-0.837000123762
 30
0.0
  0
VERTEX
  5
804
  8
DEFAULT
  6
CONTINUOUS
 62
   254
 10
-0.513357421155
 20
-0.843366116143
 30
0.0
  0
VERTEX
  5
805
  8
DEFAULT
  6
CONTINUOUS
 62
   254
 10
-0.520939594417
 20
-0.851183680757
 30
0.0
  0
VERTEX
  5
806
  8
DEFAULT
  6
CONTINUOUS
 62
   254
 10
-0.530671124485
 20
-0.86026501616
 30
0.0
  0
VERTEX
  5
807
  8
DEFAULT
  6
CONTINUOUS
 62
   254
 10
-0.542692867901
 20
-0.870410685689
 30
0.0
  0
VERTEX
  5
808
  8
DEFAULT
  6
CONTINUOUS
 62
   254
 10
-0.557130917212
 20
-0.881410557702
 30
0.0
  0
VERTEX
  5
809
  8
DEFAULT
  6
CONTINUOUS
 62
   254
 10
-0.574095895532
 20
-0.893044792634
 30
0.0
  0
VERTEX
  5
80A
  8
DEFAULT
  6
CONTINUOUS
 62
   254
 10
-0.593682313349
 20
-0.905084873246
 30
0.0
  0
VERTEX
  5
80B
  8
DEFAULT
  6
CONTINUOUS
 62
   254
 10
-0.611105895194
 20
-0.914630846221
 30
0.0
  0
SEQEND
  5
80C
  8
DEFAULT
  6
CONTINUOUS
 62
   254
  0
ARC
  5
6A
  8
DEFAULT
  6
CONTINUOUS
 62
   254
 10
-0.000021836395
 20
-0.000030055138
 30
0.0
 40
1.099962878450284
 50
231.748592425543
 51
236.251414168382
  0
POLYLINE
  5
6B
  8
DEFAULT
  6
CONTINUOUS
 62
   254
 66
     1
 10
0.0
 20
0.0
 30
0.0
  0
VERTEX
  5
80D
  8
DEFAULT
  6
CONTINUOUS
 62
   254
 10
-0.681025712167
 20
-0.863830990048
 30
0.0
  0
VERTEX
  5
80E
  8
DEFAULT
  6
CONTINUOUS
 62
   254
 10
-0.681025712167
 20
-0.863830990048
 30
0.0
  0
VERTEX
  5
80F
  8
DEFAULT
  6
CONTINUOUS
 62
   254
 10
-0.677331085704
 20
-0.844310320499
 30
0.0
  0
VERTEX
  5
810
  8
DEFAULT
  6
CONTINUOUS
 62
   254
 10
-0.671932767815
 20
-0.821961954384
 30
0.0
  0
VERTEX
  5
811
  8
DEFAULT
  6
CONTINUOUS
 62
   254
 10
-0.666110369396
 20
-0.802232139673
 30
0.0
  0
VERTEX
  5
812
  8
DEFAULT
  6
CONTINUOUS
 62
   254
 10
-0.660110428556
 20
-0.785101606637
 30
0.0
  0
VERTEX
  5
813
  8
DEFAULT
  6
CONTINUOUS
 62
   254
 10
-0.654176209474
 20
-0.770533079984
 30
0.0
  0
VERTEX
  5
814
  8
DEFAULT
  6
CONTINUOUS
 62
   254
 10
-0.648546523817
 20
-0.758471572218
 30
0.0
  0
VERTEX
  5
815
  8
DEFAULT
  6
CONTINUOUS
 62
   254
 10
-0.643454574003
 20
-0.748844749535
 30
0.0
  0
VERTEX
  5
816
  8
DEFAULT
  6
CONTINUOUS
 62
   254
 10
-0.639126822607
 20
-0.741563368768
 30
0.0
  0
VERTEX
  5
817
  8
DEFAULT
  6
CONTINUOUS
 62
   254
 10
-0.635781892089
 20
-0.736521783654
 30
0.0
  0
VERTEX
  5
818
  8
DEFAULT
  6
CONTINUOUS
 62
   254
 10
-0.633629498952
 20
-0.733598518443
 30
0.0
  0
VERTEX
  5
819
  8
DEFAULT
  6
CONTINUOUS
 62
   254
 10
-0.632869426269
 20
-0.732656906651
 30
0.0
  0
VERTEX
  5
81A
  8
DEFAULT
  6
CONTINUOUS
 62
   254
 10
-0.578058976037
 20
-0.669204236555
 30
0.0
  0
SEQEND
  5
81B
  8
DEFAULT
  6
CONTINUOUS
 62
   254
  0
ARC
  5
6C
  8
DEFAULT
  6
CONTINUOUS
 62
   254
 10
-0.000011382931
 20
-0.000011382902
 30
0.0
 40
0.8842839449388146
 50
220.820401702378
 51
229.179604891522
  0
POLYLINE
  5
6D
  8
DEFAULT
  6
CONTINUOUS
 62
   254
 66
     1
 10
0.0
 20
0.0
 30
0.0
  0
VERTEX
  5
81C
  8
DEFAULT
  6
CONTINUOUS
 62
   254
 10
-0.669205703958
 20
-0.578057277257
 30
0.0
  0
VERTEX
  5
81D
  8
DEFAULT
  6
CONTINUOUS
 62
   254
 10
-0.732658513191
 20
-0.632867566414
 30
0.0
  0
VERTEX
  5
81E
  8
DEFAULT
  6
CONTINUOUS
 62
   254
 10
-0.733600126913
 20
-0.633627636706
 30
0.0
  0
VERTEX
  5
81F
  8
DEFAULT
  6
CONTINUOUS
 62
   254
 10
-0.736523397587
 20
-0.635780022423
 30
0.0
  0
VERTEX
  5
820
  8
DEFAULT
  6
CONTINUOUS
 62
   254
 10
-0.741564991193
 20
-0.639124940143
 30
0.0
  0
VERTEX
  5
821
  8
DEFAULT
  6
CONTINUOUS
 62
   254
 10
-0.748846382946
 20
-0.643452673055
 30
0.0
  0
VERTEX
  5
822
  8
DEFAULT
  6
CONTINUOUS
 62
   254
 10
-0.758473218555
 20
-0.64854459843
 30
0.0
  0
VERTEX
  5
823
  8
DEFAULT
  6
CONTINUOUS
 62
   254
 10
-0.770534740611
 20
-0.65417425347
 30
0.0
  0
VERTEX
  5
824
  8
DEFAULT
  6
CONTINUOUS
 62
   254
 10
-0.785103282328
 20
-0.660108435569
 30
0.0
  0
VERTEX
  5
825
  8
DEFAULT
  6
CONTINUOUS
 62
   254
 10
-0.802233830595
 20
-0.666108332923
 30
0.0
  0
VERTEX
  5
826
  8
DEFAULT
  6
CONTINUOUS
 62
   254
 10
-0.821963660086
 20
-0.671930681258
 30
0.0
  0
VERTEX
  5
827
  8
DEFAULT
  6
CONTINUOUS
 62
   254
 10
-0.844312039904
 20
-0.677328942416
 30
0.0
  0
VERTEX
  5
828
  8
DEFAULT
  6
CONTINUOUS
 62
   254
 10
-0.863832718833
 20
-0.681023519325
 30
0.0
  0
SEQEND
  5
829
  8
DEFAULT
  6
CONTINUOUS
 62
   254
  0
ARC
  5
6E
  8
DEFAULT
  6
CONTINUOUS
 62
   254
 10
-0.000030055194
 20
-0.000021836318
 30
0.0
 40
1.099962878449809
 50
213.748592425554
 51
218.251414168392
  0
POLYLINE
  5
6F
  8
DEFAULT
  6
CONTINUOUS
 62
   254
 66
     1
 10
0.0
 20
0.0
 30
0.0
  0
VERTEX
  5
82A
  8
DEFAULT
  6
CONTINUOUS
 62
   254
 10
-0.914632397513
 20
-0.611103573397
 30
0.0
  0
VERTEX
  5
82B
  8
DEFAULT
  6
CONTINUOUS
 62
   254
 10
-0.914632397513
 20
-0.611103573397
 30
0.0
  0
VERTEX
  5
82C
  8
DEFAULT
  6
CONTINUOUS
 62
   254
 10
-0.905086380309
 20
-0.593680015784
 30
0.0
  0
VERTEX
  5
82D
  8
DEFAULT
  6
CONTINUOUS
 62
   254
 10
-0.893046249977
 20
-0.574093628531
 30
0.0
  0
VERTEX
  5
82E
  8
DEFAULT
  6
CONTINUOUS
 62
   254
 10
-0.881411971978
 20
-0.557128679745
 30
0.0
  0
VERTEX
  5
82F
  8
DEFAULT
  6
CONTINUOUS
 62
   254
 10
-0.870412063314
 20
-0.542690658358
 30
0.0
  0
VERTEX
  5
830
  8
DEFAULT
  6
CONTINUOUS
 62
   254
 10
-0.860266363269
 20
-0.530668940696
 30
0.0
  0
VERTEX
  5
831
  8
DEFAULT
  6
CONTINUOUS
 62
   254
 10
-0.851185003162
 20
-0.520937433681
 30
0.0
  0
VERTEX
  5
832
  8
DEFAULT
  6
CONTINUOUS
 62
   254
 10
-0.843367419301
 20
-0.513355280264
 30
0.0
  0
VERTEX
  5
833
  8
DEFAULT
  6
CONTINUOUS
 62
   254
 10
-0.837001412735
 20
-0.507767624366
 30
0.0
  0
VERTEX
  5
834
  8
DEFAULT
  6
CONTINUOUS
 62
   254
 10
-0.83226225929
 20
-0.504006432366
 30
0.0
  0
VERTEX
  5
835
  8
DEFAULT
  6
CONTINUOUS
 62
   254
 10
-0.829311873142
 20
-0.501891367997
 30
0.0
  0
VERTEX
  5
836
  8
DEFAULT
  6
CONTINUOUS
 62
   254
 10
-0.828298027019
 20
-0.501230717342
 30
0.0
  0
VERTEX
  5
837
  8
DEFAULT
  6
CONTINUOUS
 62
   254
 10
-0.756562237766
 20
-0.457821002561
 30
0.0
  0
SEQEND
  5
838
  8
DEFAULT
  6
CONTINUOUS
 62
   254
  0
ARC
  5
70
  8
DEFAULT
  6
CONTINUOUS
 62
   254
 10
-0.000014343321
 20
-0.000007308263
 30
0.0
 40
0.8842839449390312
 50
202.820401702393
 51
211.179604891538
  0
POLYLINE
  5
71
  8
DEFAULT
  6
CONTINUOUS
 62
   254
 66
     1
 10
0.0
 20
0.0
 30
0.0
  0
VERTEX
  5
839
  8
DEFAULT
  6
CONTINUOUS
 62
   254
 10
-0.815081967886
 20
-0.342969205071
 30
0.0
  0
VERTEX
  5
83A
  8
DEFAULT
  6
CONTINUOUS
 62
   254
 10
-0.8923664864
 20
-0.37548889134
 30
0.0
  0
VERTEX
  5
83B
  8
DEFAULT
  6
CONTINUOUS
 62
   254
 10
-0.893496888903
 20
-0.375920786502
 30
0.0
  0
VERTEX
  5
83C
  8
DEFAULT
  6
CONTINUOUS
 62
   254
 10
-0.896942208292
 20
-0.377064486646
 30
0.0
  0
VERTEX
  5
83D
  8
DEFAULT
  6
CONTINUOUS
 62
   254
 10
-0.902770685163
 20
-0.378687754337
 30
0.0
  0
VERTEX
  5
83E
  8
DEFAULT
  6
CONTINUOUS
 62
   254
 10
-0.911033043255
 20
-0.38055359913
 30
0.0
  0
VERTEX
  5
83F
  8
DEFAULT
  6
CONTINUOUS
 62
   254
 10
-0.921762199467
 20
-0.382421452134
 30
0.0
  0
VERTEX
  5
840
  8
DEFAULT
  6
CONTINUOUS
 62
   254
 10
-0.934973047695
 20
-0.38404835695
 30
0.0
  0
VERTEX
  5
841
  8
DEFAULT
  6
CONTINUOUS
 62
   254
 10
-0.950662317344
 20
-0.385190172531
 30
0.0
  0
VERTEX
  5
842
  8
DEFAULT
  6
CONTINUOUS
 62
   254
 10
-0.968808507148
 20
-0.385602783469
 30
0.0
  0
VERTEX
  5
843
  8
DEFAULT
  6
CONTINUOUS
 62
   254
 10
-0.989371894633
 20
-0.385043313183
 30
0.0
  0
VERTEX
  5
844
  8
DEFAULT
  6
CONTINUOUS
 62
   254
 10
-1.012294621326
 20
-0.383271335474
 30
0.0
  0
VERTEX
  5
845
  8
DEFAULT
  6
CONTINUOUS
 62
   254
 10
-1.032001577275
 20
-0.380752865388
 30
0.0
  0
SEQEND
  5
846
  8
DEFAULT
  6
CONTINUOUS
 62
   254
  0
ARC
  5
72
  8
DEFAULT
  6
CONTINUOUS
 62
   254
 10
-0.000035331981
 20
-0.000011480008
 30
0.0
 40
1.0999628784504
 50
195.748592425479
 51
200.251414168317
  0
POLYLINE
  5
73
  8
DEFAULT
  6
CONTINUOUS
 62
   254
 66
     1
 10
0.0
 20
0.0
 30
0.0
  0
VERTEX
  5
847
  8
DEFAULT
  6
CONTINUOUS
 62
   254
 10
-1.058708491173
 20
-0.298557081173
 30
0.0
  0
VERTEX
  5
848
  8
DEFAULT
  6
CONTINUOUS
 62
   254
 10
-1.058708491173
 20
-0.298557081173
 30
0.0
  0
VERTEX
  5
849
  8
DEFAULT
  6
CONTINUOUS
 62
   254
 10
-1.044245513901
 20
-0.284936174713
 30
0.0
  0
VERTEX
  5
84A
  8
DEFAULT
  6
CONTINUOUS
 62
   254
 10
-1.026742142972
 20
-0.270029018373
 30
0.0
  0
VERTEX
  5
84B
  8
DEFAULT
  6
CONTINUOUS
 62
   254
 10
-1.010434829585
 20
-0.257489582899
 30
0.0
  0
VERTEX
  5
84C
  8
DEFAULT
  6
CONTINUOUS
 62
   254
 10
-0.995511700798
 20
-0.24715736729
 30
0.0
  0
VERTEX
  5
84D
  8
DEFAULT
  6
CONTINUOUS
 62
   254
 10
-0.982147651598
 20
-0.238859228106
 30
0.0
  0
VERTEX
  5
84E
  8
DEFAULT
  6
CONTINUOUS
 62
   254
 10
-0.970503563843
 20
-0.23241030955
 30
0.0
  0
VERTEX
  5
84F
  8
DEFAULT
  6
CONTINUOUS
 62
   254
 10
-0.960725585511
 20
-0.227615019403
 30
0.0
  0
VERTEX
  5
850
  8
DEFAULT
  6
CONTINUOUS
 62
   254
 10
-0.952944472852
 20
-0.224268047066
 30
0.0
  0
VERTEX
  5
851
  8
DEFAULT
  6
CONTINUOUS
 62
   254
 10
-0.94727499784
 20
-0.222155419859
 30
0.0
  0
VERTEX
  5
852
  8
DEFAULT
  6
CONTINUOUS
 62
   254
 10
-0.943815423034
 20
-0.221055593568
 30
0.0
  0
VERTEX
  5
853
  8
DEFAULT
  6
CONTINUOUS
 62
   254
 10
-0.942647045792
 20
-0.220740573139
 30
0.0
  0
VERTEX
  5
854
  8
DEFAULT
  6
CONTINUOUS
 62
   254
 10
-0.861007916384
 20
-0.201623059011
 30
0.0
  0
SEQEND
  5
855
  8
DEFAULT
  6
CONTINUOUS
 62
   254
  0
ARC
  5
74
  8
DEFAULT
  6
CONTINUOUS
 62
   254
 10
-0.000015899686
 20
-0.000002518242
 30
0.0
 40
0.8842839449391158
 50
184.820401702348
 51
193.179604891492
  0
POLYLINE
  5
75
  8
DEFAULT
  6
CONTINUOUS
 62
   254
 66
     1
 10
0.0
 20
0.0
 30
0.0
  0
VERTEX
  5
856
  8
DEFAULT
  6
CONTINUOUS
 62
   254
 10
-0.881172329787
 20
-0.074308917486
 30
0.0
  0
VERTEX
  5
857
  8
DEFAULT
  6
CONTINUOUS
 62
   254
 10
-0.964723410437
 20
-0.081354747397
 30
0.0
  0
VERTEX
  5
858
  8
DEFAULT
  6
CONTINUOUS
 62
   254
 10
-0.965931950049
 20
-0.081416190521
 30
0.0
  0
VERTEX
  5
859
  8
DEFAULT
  6
CONTINUOUS
 62
   254
 10
-0.969562066285
 20
-0.081439251754
 30
0.0
  0
VERTEX
  5
85A
  8
DEFAULT
  6
CONTINUOUS
 62
   254
 10
-0.975606894497
 20
-0.081181972665
 30
0.0
  0
VERTEX
  5
85B
  8
DEFAULT
  6
CONTINUOUS
 62
   254
 10
-0.984041441749
 20
-0.080403287449
 30
0.0
  0
VERTEX
  5
85C
  8
DEFAULT
  6
CONTINUOUS
 62
   254
 10
-0.994822674
 20
-0.078864229615
 30
0.0
  0
VERTEX
  5
85D
  8
DEFAULT
  6
CONTINUOUS
 62
   254
 10
-1.007889678529
 20
-0.076329131429
 30
0.0
  0
VERTEX
  5
85E
  8
DEFAULT
  6
CONTINUOUS
 62
   254
 10
-1.023163901084
 20
-0.072566811627
 30
0.0
  0
VERTEX
  5
85F
  8
DEFAULT
  6
CONTINUOUS
 62
   254
 10
-1.040549456935
 20
-0.067351746916
 30
0.0
  0
VERTEX
  5
860
  8
DEFAULT
  6
CONTINUOUS
 62
   254
 10
-1.059933514774
 20
-0.06046522286
 30
0.0
  0
VERTEX
  5
861
  8
DEFAULT
  6
CONTINUOUS
 62
   254
 10
-1.081186752141
 20
-0.051696459808
 30
0.0
  0
VERTEX
  5
862
  8
DEFAULT
  6
CONTINUOUS
 62
   254
 10
-1.099150930956
 20
-0.043211468125
 30
0.0
  0
SEQEND
  5
863
  8
DEFAULT
  6
CONTINUOUS
 62
   254
  0
ARC
  5
76
  8
DEFAULT
  6
CONTINUOUS
 62
   254
 10
-0.000037150228
 20
0.000000000046
 30
0.0
 40
1.099962878450242
 50
177.748592425467
 51
182.251414168306
  0
POLYLINE
  5
77
  8
DEFAULT
  6
CONTINUOUS
 62
   254
 66
     1
 10
0.0
 20
0.0
 30
0.0
  0
VERTEX
  5
864
  8
DEFAULT
  6
CONTINUOUS
 62
   254
 10
-1.09915082126
 20
0.043214258326
 30
0.0
  0
VERTEX
  5
865
  8
DEFAULT
  6
CONTINUOUS
 62
   254
 10
-1.09915082126
 20
0.043214258326
 30
0.0
  0
VERTEX
  5
866
  8
DEFAULT
  6
CONTINUOUS
 62
   254
 10
-1.081186620906
 20
0.051699204406
 30
0.0
  0
VERTEX
  5
867
  8
DEFAULT
  6
CONTINUOUS
 62
   254
 10
-1.05993336128
 20
0.060467913507
 30
0.0
  0
VERTEX
  5
868
  8
DEFAULT
  6
CONTINUOUS
 62
   254
 10
-1.040549285959
 20
0.067354388356
 30
0.0
  0
VERTEX
  5
869
  8
DEFAULT
  6
CONTINUOUS
 62
   254
 10
-1.02316371687
 20
0.072569408934
 30
0.0
  0
VERTEX
  5
86A
  8
DEFAULT
  6
CONTINUOUS
 62
   254
 10
-1.007889484764
 20
0.076331689962
 30
0.0
  0
VERTEX
  5
86B
  8
DEFAULT
  6
CONTINUOUS
 62
   254
 10
-0.9948224738
 20
0.078866754977
 30
0.0
  0
VERTEX
  5
86C
  8
DEFAULT
  6
CONTINUOUS
 62
   254
 10
-0.984041237642
 20
0.080405785444
 30
0.0
  0
VERTEX
  5
86D
  8
DEFAULT
  6
CONTINUOUS
 62
   254
 10
-0.975606688413
 20
0.081184449248
 30
0.0
  0
VERTEX
  5
86E
  8
DEFAULT
  6
CONTINUOUS
 62
   254
 10
-0.969561859548
 20
0.081441712992
 30
0.0
  0
VERTEX
  5
86F
  8
DEFAULT
  6
CONTINUOUS
 62
   254
 10
-0.96593174337
 20
0.081418642545
 30
0.0
  0
VERTEX
  5
870
  8
DEFAULT
  6
CONTINUOUS
 62
   254
 10
-0.964723203915
 20
0.081357196352
 30
0.0
  0
VERTEX
  5
871
  8
DEFAULT
  6
CONTINUOUS
 62
   254
 10
-0.88117214115
 20
0.074311154347
 30
0.0
  0
SEQEND
  5
872
  8
DEFAULT
  6
CONTINUOUS
 62
   254
  0
ARC
  5
78
  8
DEFAULT
  6
CONTINUOUS
 62
   254
 10
-0.000015899679
 20
0.000002518283
 30
0.0
 40
0.8842839449392313
 50
166.82040170236
 51
175.179604891505
  0
POLYLINE
  5
79
  8
DEFAULT
  6
CONTINUOUS
 62
   254
 66
     1
 10
0.0
 20
0.0
 30
0.0
  0
VERTEX
  5
873
  8
DEFAULT
  6
CONTINUOUS
 62
   254
 10
-0.86100740456
 20
0.201625244683
 30
0.0
  0
VERTEX
  5
874
  8
DEFAULT
  6
CONTINUOUS
 62
   254
 10
-0.942646485438
 20
0.220742966053
 30
0.0
  0
VERTEX
  5
875
  8
DEFAULT
  6
CONTINUOUS
 62
   254
 10
-0.94381486188
 20
0.221057989447
 30
0.0
  0
VERTEX
  5
876
  8
DEFAULT
  6
CONTINUOUS
 62
   254
 10
-0.947274433894
 20
0.22215782452
 30
0.0
  0
VERTEX
  5
877
  8
DEFAULT
  6
CONTINUOUS
 62
   254
 10
-0.952943903544
 20
0.22427046612
 30
0.0
  0
VERTEX
  5
878
  8
DEFAULT
  6
CONTINUOUS
 62
   254
 10
-0.960725007706
 20
0.227617458209
 30
0.0
  0
VERTEX
  5
879
  8
DEFAULT
  6
CONTINUOUS
 62
   254
 10
-0.970502973865
 20
0.232412773178
 30
0.0
  0
VERTEX
  5
87A
  8
DEFAULT
  6
CONTINUOUS
 62
   254
 10
-0.98214704525
 20
0.238861721292
 30
0.0
  0
VERTEX
  5
87B
  8
DEFAULT
  6
CONTINUOUS
 62
   254
 10
-0.995511073385
 20
0.247159894401
 30
0.0
  0
VERTEX
  5
87C
  8
DEFAULT
  6
CONTINUOUS
 62
   254
 10
-1.010434175944
 20
0.257492147892
 30
0.0
  0
VERTEX
  5
87D
  8
DEFAULT
  6
CONTINUOUS
 62
   254
 10
-1.026741457498
 20
0.270031624762
 30
0.0
  0
VERTEX
  5
87E
  8
DEFAULT
  6
CONTINUOUS
 62
   254
 10
-1.044244790585
 20
0.284938825535
 30
0.0
  0
VERTEX
  5
87F
  8
DEFAULT
  6
CONTINUOUS
 62
   254
 10
-1.058707733281
 20
0.298559768709
 30
0.0
  0
SEQEND
  5
880
  8
DEFAULT
  6
CONTINUOUS
 62
   254
  0
ARC
  5
7A
  8
DEFAULT
  6
CONTINUOUS
 62
   254
 10
-0.000035331953
 20
0.000011480097
 30
0.0
 40
1.099962878449407
 50
159.748592425526
 51
164.251414168364
  0
POLYLINE
  5
7B
  8
DEFAULT
  6
CONTINUOUS
 62
   254
 66
     1
 10
0.0
 20
0.0
 30
0.0
  0
VERTEX
  5
881
  8
DEFAULT
  6
CONTINUOUS
 62
   254
 10
-1.032000610729
 20
0.380755485128
 30
0.0
  0
VERTEX
  5
882
  8
DEFAULT
  6
CONTINUOUS
 62
   254
 10
-1.032000610729
 20
0.380755485128
 30
0.0
  0
VERTEX
  5
883
  8
DEFAULT
  6
CONTINUOUS
 62
   254
 10
-1.012293648387
 20
0.383273905188
 30
0.0
  0
VERTEX
  5
884
  8
DEFAULT
  6
CONTINUOUS
 62
   254
 10
-0.989370917196
 20
0.385045824708
 30
0.0
  0
VERTEX
  5
885
  8
DEFAULT
  6
CONTINUOUS
 62
   254
 10
-0.96880752829
 20
0.385605242793
 30
0.0
  0
VERTEX
  5
886
  8
DEFAULT
  6
CONTINUOUS
 62
   254
 10
-0.950661339534
 20
0.385192585791
 30
0.0
  0
VERTEX
  5
887
  8
DEFAULT
  6
CONTINUOUS
 62
   254
 10
-0.934972072783
 20
0.384050730382
 30
0.0
  0
VERTEX
  5
888
  8
DEFAULT
  6
CONTINUOUS
 62
   254
 10
-0.921761228685
 20
0.382423792031
 30
0.0
  0
VERTEX
  5
889
  8
DEFAULT
  6
CONTINUOUS
 62
   254
 10
-0.911032077214
 20
0.380555911791
 30
0.0
  0
VERTEX
  5
88A
  8
DEFAULT
  6
CONTINUOUS
 62
   254
 10
-0.902769723859
 20
0.378690046024
 30
0.0
  0
VERTEX
  5
88B
  8
DEFAULT
  6
CONTINUOUS
 62
   254
 10
-0.896941251109
 20
0.377066763538
 30
0.0
  0
VERTEX
  5
88C
  8
DEFAULT
  6
CONTINUOUS
 62
   254
 10
-0.893495934623
 20
0.375923054647
 30
0.0
  0
VERTEX
  5
88D
  8
DEFAULT
  6
CONTINUOUS
 62
   254
 10
-0.892365533217
 20
0.375491156616
 30
0.0
  0
VERTEX
  5
88E
  8
DEFAULT
  6
CONTINUOUS
 62
   254
 10
-0.815081097254
 20
0.34297127416
 30
0.0
  0
SEQEND
  5
88F
  8
DEFAULT
  6
CONTINUOUS
 62
   254
  0
ARC
  5
7C
  8
DEFAULT
  6
CONTINUOUS
 62
   254
 10
-0.000014343301
 20
0.0000073083
 30
0.0
 40
0.8842839449392605
 50
148.820401702371
 51
157.179604891516
  0
POLYLINE
  5
7D
  8
DEFAULT
  6
CONTINUOUS
 62
   254
 66
     1
 10
0.0
 20
0.0
 30
0.0
  0
VERTEX
  5
890
  8
DEFAULT
  6
CONTINUOUS
 62
   254
 10
-0.756561075583
 20
0.457822923097
 30
0.0
  0
VERTEX
  5
891
  8
DEFAULT
  6
CONTINUOUS
 62
   254
 10
-0.828296754639
 20
0.501232819979
 30
0.0
  0
VERTEX
  5
892
  8
DEFAULT
  6
CONTINUOUS
 62
   254
 10
-0.829310599085
 20
0.501893473208
 30
0.0
  0
VERTEX
  5
893
  8
DEFAULT
  6
CONTINUOUS
 62
   254
 10
-0.832260979865
 20
0.504008545066
 30
0.0
  0
VERTEX
  5
894
  8
DEFAULT
  6
CONTINUOUS
 62
   254
 10
-0.837000123762
 20
0.507769749097
 30
0.0
  0
VERTEX
  5
895
  8
DEFAULT
  6
CONTINUOUS
 62
   254
 10
-0.843366116143
 20
0.513357421155
 30
0.0
  0
VERTEX
  5
896
  8
DEFAULT
  6
CONTINUOUS
 62
   254
 10
-0.851183680757
 20
0.520939594417
 30
0.0
  0
VERTEX
  5
897
  8
DEFAULT
  6
CONTINUOUS
 62
   254
 10
-0.86026501616
 20
0.530671124485
 30
0.0
  0
VERTEX
  5
898
  8
DEFAULT
  6
CONTINUOUS
 62
   254
 10
-0.870410685689
 20
0.542692867901
 30
0.0
  0
VERTEX
  5
899
  8
DEFAULT
  6
CONTINUOUS
 62
   254
 10
-0.881410557702
 20
0.557130917212
 30
0.0
  0
VERTEX
  5
89A
  8
DEFAULT
  6
CONTINUOUS
 62
   254
 10
-0.893044792634
 20
0.574095895532
 30
0.0
  0
VERTEX
  5
89B
  8
DEFAULT
  6
CONTINUOUS
 62
   254
 10
-0.905084873246
 20
0.593682313349
 30
0.0
  0
VERTEX
  5
89C
  8
DEFAULT
  6
CONTINUOUS
 62
   254
 10
-0.914630846221
 20
0.611105895194
 30
0.0
  0
SEQEND
  5
89D
  8
DEFAULT
  6
CONTINUOUS
 62
   254
  0
ARC
  5
7E
  8
DEFAULT
  6
CONTINUOUS
 62
   254
 10
-0.000030055138
 20
0.000021836395
 30
0.0
 40
1.099962878450284
 50
141.748592425543
 51
146.251414168382
  0
POLYLINE
  5
7F
  8
DEFAULT
  6
CONTINUOUS
 62
   254
 66
     1
 10
0.0
 20
0.0
 30
0.0
  0
VERTEX
  5
89E
  8
DEFAULT
  6
CONTINUOUS
 62
   254
 10
-0.863830990048
 20
0.681025712167
 30
0.0
  0
VERTEX
  5
89F
  8
DEFAULT
  6
CONTINUOUS
 62
   254
 10
-0.863830990048
 20
0.681025712167
 30
0.0
  0
VERTEX
  5
8A0
  8
DEFAULT
  6
CONTINUOUS
 62
   254
 10
-0.844310320499
 20
0.677331085704
 30
0.0
  0
VERTEX
  5
8A1
  8
DEFAULT
  6
CONTINUOUS
 62
   254
 10
-0.821961954384
 20
0.671932767815
 30
0.0
  0
VERTEX
  5
8A2
  8
DEFAULT
  6
CONTINUOUS
 62
   254
 10
-0.802232139673
 20
0.666110369396
 30
0.0
  0
VERTEX
  5
8A3
  8
DEFAULT
  6
CONTINUOUS
 62
   254
 10
-0.785101606637
 20
0.660110428556
 30
0.0
  0
VERTEX
  5
8A4
  8
DEFAULT
  6
CONTINUOUS
 62
   254
 10
-0.770533079984
 20
0.654176209474
 30
0.0
  0
VERTEX
  5
8A5
  8
DEFAULT
  6
CONTINUOUS
 62
   254
 10
-0.758471572218
 20
0.648546523817
 30
0.0
  0
VERTEX
  5
8A6
  8
DEFAULT
  6
CONTINUOUS
 62
   254
 10
-0.748844749535
 20
0.643454574003
 30
0.0
  0
VERTEX
  5
8A7
  8
DEFAULT
  6
CONTINUOUS
 62
   254
 10
-0.741563368768
 20
0.639126822607
 30
0.0
  0
VERTEX
  5
8A8
  8
DEFAULT
  6
CONTINUOUS
 62
   254
 10
-0.736521783654
 20
0.635781892089
 30
0.0
  0
VERTEX
  5
8A9
  8
DEFAULT
  6
CONTINUOUS
 62
   254
 10
-0.733598518443
 20
0.633629498952
 30
0.0
  0
VERTEX
  5
8AA
  8
DEFAULT
  6
CONTINUOUS
 62
   254
 10
-0.732656906651
 20
0.632869426269
 30
0.0
  0
VERTEX
  5
8AB
  8
DEFAULT
  6
CONTINUOUS
 62
   254
 10
-0.669204236555
 20
0.578058976037
 30
0.0
  0
SEQEND
  5
8AC
  8
DEFAULT
  6
CONTINUOUS
 62
   254
  0
ARC
  5
80
  8
DEFAULT
  6
CONTINUOUS
 62
   254
 10
-0.000011382902
 20
0.000011382931
 30
0.0
 40
0.8842839449388146
 50
130.820401702378
 51
139.179604891522
  0
POLYLINE
  5
81
  8
DEFAULT
  6
CONTINUOUS
 62
   254
 66
     1
 10
0.0
 20
0.0
 30
0.0
  0
VERTEX
  5
8AD
  8
DEFAULT
  6
CONTINUOUS
 62
   254
 10
-0.578057277257
 20
0.669205703958
 30
0.0
  0
VERTEX
  5
8AE
  8
DEFAULT
  6
CONTINUOUS
 62
   254
 10
-0.632867566414
 20
0.732658513191
 30
0.0
  0
VERTEX
  5
8AF
  8
DEFAULT
  6
CONTINUOUS
 62
   254
 10
-0.633627636706
 20
0.733600126913
 30
0.0
  0
VERTEX
  5
8B0
  8
DEFAULT
  6
CONTINUOUS
 62
   254
 10
-0.635780022423
 20
0.736523397587
 30
0.0
  0
VERTEX
  5
8B1
  8
DEFAULT
  6
CONTINUOUS
 62
   254
 10
-0.639124940143
 20
0.741564991193
 30
0.0
  0
VERTEX
  5
8B2
  8
DEFAULT
  6
CONTINUOUS
 62
   254
 10
-0.643452673055
 20
0.748846382946
 30
0.0
  0
VERTEX
  5
8B3
  8
DEFAULT
  6
CONTINUOUS
 62
   254
 10
-0.64854459843
 20
0.758473218555
 30
0.0
  0
VERTEX
  5
8B4
  8
DEFAULT
  6
CONTINUOUS
 62
   254
 10
-0.65417425347
 20
0.770534740611
 30
0.0
  0
VERTEX
  5
8B5
  8
DEFAULT
  6
CONTINUOUS
 62
   254
 10
-0.660108435569
 20
0.785103282328
 30
0.0
  0
VERTEX
  5
8B6
  8
DEFAULT
  6
CONTINUOUS
 62
   254
 10
-0.666108332923
 20
0.802233830595
 30
0.0
  0
VERTEX
  5
8B7
  8
DEFAULT
  6
CONTINUOUS
 62
   254
 10
-0.671930681258
 20
0.821963660086
 30
0.0
  0
VERTEX
  5
8B8
  8
DEFAULT
  6
CONTINUOUS
 62
   254
 10
-0.677328942416
 20
0.844312039904
 30
0.0
  0
VERTEX
  5
8B9
  8
DEFAULT
  6
CONTINUOUS
 62
   254
 10
-0.681023519325
 20
0.863832718833
 30
0.0
  0
SEQEND
  5
8BA
  8
DEFAULT
  6
CONTINUOUS
 62
   254
  0
ARC
  5
82
  8
DEFAULT
  6
CONTINUOUS
 62
   254
 10
-0.000021836318
 20
0.000030055194
 30
0.0
 40
1.099962878449809
 50
123.748592425554
 51
128.251414168392
  0
POLYLINE
  5
83
  8
DEFAULT
  6
CONTINUOUS
 62
   254
 66
     1
 10
0.0
 20
0.0
 30
0.0
  0
VERTEX
  5
8BB
  8
DEFAULT
  6
CONTINUOUS
 62
   254
 10
-0.611103573397
 20
0.914632397513
 30
0.0
  0
VERTEX
  5
8BC
  8
DEFAULT
  6
CONTINUOUS
 62
   254
 10
-0.611103573397
 20
0.914632397513
 30
0.0
  0
VERTEX
  5
8BD
  8
DEFAULT
  6
CONTINUOUS
 62
   254
 10
-0.593680015784
 20
0.905086380309
 30
0.0
  0
VERTEX
  5
8BE
  8
DEFAULT
  6
CONTINUOUS
 62
   254
 10
-0.574093628531
 20
0.893046249977
 30
0.0
  0
VERTEX
  5
8BF
  8
DEFAULT
  6
CONTINUOUS
 62
   254
 10
-0.557128679745
 20
0.881411971978
 30
0.0
  0
VERTEX
  5
8C0
  8
DEFAULT
  6
CONTINUOUS
 62
   254
 10
-0.542690658358
 20
0.870412063314
 30
0.0
  0
VERTEX
  5
8C1
  8
DEFAULT
  6
CONTINUOUS
 62
   254
 10
-0.530668940696
 20
0.860266363269
 30
0.0
  0
VERTEX
  5
8C2
  8
DEFAULT
  6
CONTINUOUS
 62
   254
 10
-0.520937433681
 20
0.851185003162
 30
0.0
  0
VERTEX
  5
8C3
  8
DEFAULT
  6
CONTINUOUS
 62
   254
 10
-0.513355280264
 20
0.843367419301
 30
0.0
  0
VERTEX
  5
8C4
  8
DEFAULT
  6
CONTINUOUS
 62
   254
 10
-0.507767624366
 20
0.837001412735
 30
0.0
  0
VERTEX
  5
8C5
  8
DEFAULT
  6
CONTINUOUS
 62
   254
 10
-0.504006432366
 20
0.83226225929
 30
0.0
  0
VERTEX
  5
8C6
  8
DEFAULT
  6
CONTINUOUS
 62
   254
 10
-0.501891367997
 20
0.829311873142
 30
0.0
  0
VERTEX
  5
8C7
  8
DEFAULT
  6
CONTINUOUS
 62
   254
 10
-0.501230717342
 20
0.828298027019
 30
0.0
  0
VERTEX
  5
8C8
  8
DEFAULT
  6
CONTINUOUS
 62
   254
 10
-0.457821002561
 20
0.756562237766
 30
0.0
  0
SEQEND
  5
8C9
  8
DEFAULT
  6
CONTINUOUS
 62
   254
  0
ARC
  5
84
  8
DEFAULT
  6
CONTINUOUS
 62
   254
 10
-0.000007308263
 20
0.000014343321
 30
0.0
 40
0.8842839449390312
 50
112.820401702393
 51
121.179604891538
  0
POLYLINE
  5
85
  8
DEFAULT
  6
CONTINUOUS
 62
   254
 66
     1
 10
0.0
 20
0.0
 30
0.0
  0
VERTEX
  5
8CA
  8
DEFAULT
  6
CONTINUOUS
 62
   254
 10
-0.342969205071
 20
0.815081967886
 30
0.0
  0
VERTEX
  5
8CB
  8
DEFAULT
  6
CONTINUOUS
 62
   254
 10
-0.37548889134
 20
0.8923664864
 30
0.0
  0
VERTEX
  5
8CC
  8
DEFAULT
  6
CONTINUOUS
 62
   254
 10
-0.375920786502
 20
0.893496888903
 30
0.0
  0
VERTEX
  5
8CD
  8
DEFAULT
  6
CONTINUOUS
 62
   254
 10
-0.377064486646
 20
0.896942208292
 30
0.0
  0
VERTEX
  5
8CE
  8
DEFAULT
  6
CONTINUOUS
 62
   254
 10
-0.378687754337
 20
0.902770685163
 30
0.0
  0
VERTEX
  5
8CF
  8
DEFAULT
  6
CONTINUOUS
 62
   254
 10
-0.38055359913
 20
0.911033043255
 30
0.0
  0
VERTEX
  5
8D0
  8
DEFAULT
  6
CONTINUOUS
 62
   254
 10
-0.382421452134
 20
0.921762199467
 30
0.0
  0
VERTEX
  5
8D1
  8
DEFAULT
  6
CONTINUOUS
 62
   254
 10
-0.38404835695
 20
0.934973047695
 30
0.0
  0
VERTEX
  5
8D2
  8
DEFAULT
  6
CONTINUOUS
 62
   254
 10
-0.385190172531
 20
0.950662317344
 30
0.0
  0
VERTEX
  5
8D3
  8
DEFAULT
  6
CONTINUOUS
 62
   254
 10
-0.385602783469
 20
0.968808507148
 30
0.0
  0
VERTEX
  5
8D4
  8
DEFAULT
  6
CONTINUOUS
 62
   254
 10
-0.385043313183
 20
0.989371894633
 30
0.0
  0
VERTEX
  5
8D5
  8
DEFAULT
  6
CONTINUOUS
 62
   254
 10
-0.383271335474
 20
1.012294621326
 30
0.0
  0
VERTEX
  5
8D6
  8
DEFAULT
  6
CONTINUOUS
 62
   254
 10
-0.380752865388
 20
1.032001577275
 30
0.0
  0
SEQEND
  5
8D7
  8
DEFAULT
  6
CONTINUOUS
 62
   254
  0
ARC
  5
86
  8
DEFAULT
  6
CONTINUOUS
 62
   254
 10
-0.000011480008
 20
0.000035331981
 30
0.0
 40
1.0999628784504
 50
105.748592425479
 51
110.251414168317
  0
POLYLINE
  5
87
  8
DEFAULT
  6
CONTINUOUS
 62
   254
 66
     1
 10
0.0
 20
0.0
 30
0.0
  0
VERTEX
  5
8D8
  8
DEFAULT
  6
CONTINUOUS
 62
   254
 10
-0.298557081173
 20
1.058708491173
 30
0.0
  0
VERTEX
  5
8D9
  8
DEFAULT
  6
CONTINUOUS
 62
   254
 10
-0.298557081173
 20
1.058708491173
 30
0.0
  0
VERTEX
  5
8DA
  8
DEFAULT
  6
CONTINUOUS
 62
   254
 10
-0.284936174713
 20
1.044245513901
 30
0.0
  0
VERTEX
  5
8DB
  8
DEFAULT
  6
CONTINUOUS
 62
   254
 10
-0.270029018373
 20
1.026742142972
 30
0.0
  0
VERTEX
  5
8DC
  8
DEFAULT
  6
CONTINUOUS
 62
   254
 10
-0.257489582899
 20
1.010434829585
 30
0.0
  0
VERTEX
  5
8DD
  8
DEFAULT
  6
CONTINUOUS
 62
   254
 10
-0.24715736729
 20
0.995511700798
 30
0.0
  0
VERTEX
  5
8DE
  8
DEFAULT
  6
CONTINUOUS
 62
   254
 10
-0.238859228106
 20
0.982147651598
 30
0.0
  0
VERTEX
  5
8DF
  8
DEFAULT
  6
CONTINUOUS
 62
   254
 10
-0.23241030955
 20
0.970503563843
 30
0.0
  0
VERTEX
  5
8E0
  8
DEFAULT
  6
CONTINUOUS
 62
   254
 10
-0.227615019403
 20
0.960725585511
 30
0.0
  0
VERTEX
  5
8E1
  8
DEFAULT
  6
CONTINUOUS
 62
   254
 10
-0.224268047066
 20
0.952944472852
 30
0.0
  0
VERTEX
  5
8E2
  8
DEFAULT
  6
CONTINUOUS
 62
   254
 10
-0.222155419859
 20
0.94727499784
 30
0.0
  0
VERTEX
  5
8E3
  8
DEFAULT
  6
CONTINUOUS
 62
   254
 10
-0.221055593568
 20
0.943815423034
 30
0.0
  0
VERTEX
  5
8E4
  8
DEFAULT
  6
CONTINUOUS
 62
   254
 10
-0.220740573139
 20
0.942647045792
 30
0.0
  0
VERTEX
  5
8E5
  8
DEFAULT
  6
CONTINUOUS
 62
   254
 10
-0.201623059011
 20
0.861007916384
 30
0.0
  0
SEQEND
  5
8E6
  8
DEFAULT
  6
CONTINUOUS
 62
   254
  0
ARC
  5
88
  8
DEFAULT
  6
CONTINUOUS
 62
   254
 10
-0.000002518242
 20
0.000015899686
 30
0.0
 40
0.8842839449391158
 50
94.820401702348
 51
103.179604891492
  0
POLYLINE
  5
89
  8
DEFAULT
  6
CONTINUOUS
 62
   254
 66
     1
 10
0.0
 20
0.0
 30
0.0
  0
VERTEX
  5
8E7
  8
DEFAULT
  6
CONTINUOUS
 62
   254
 10
-0.074308917486
 20
0.881172329787
 30
0.0
  0
VERTEX
  5
8E8
  8
DEFAULT
  6
CONTINUOUS
 62
   254
 10
-0.081354747397
 20
0.964723410437
 30
0.0
  0
VERTEX
  5
8E9
  8
DEFAULT
  6
CONTINUOUS
 62
   254
 10
-0.081416190521
 20
0.965931950049
 30
0.0
  0
VERTEX
  5
8EA
  8
DEFAULT
  6
CONTINUOUS
 62
   254
 10
-0.081439251754
 20
0.969562066285
 30
0.0
  0
VERTEX
  5
8EB
  8
DEFAULT
  6
CONTINUOUS
 62
   254
 10
-0.081181972665
 20
0.975606894497
 30
0.0
  0
VERTEX
  5
8EC
  8
DEFAULT
  6
CONTINUOUS
 62
   254
 10
-0.080403287449
 20
0.984041441749
 30
0.0
  0
VERTEX
  5
8ED
  8
DEFAULT
  6
CONTINUOUS
 62
   254
 10
-0.078864229615
 20
0.994822674
 30
0.0
  0
VERTEX
  5
8EE
  8
DEFAULT
  6
CONTINUOUS
 62
   254
 10
-0.076329131429
 20
1.007889678529
 30
0.0
  0
VERTEX
  5
8EF
  8
DEFAULT
  6
CONTINUOUS
 62
   254
 10
-0.072566811627
 20
1.023163901084
 30
0.0
  0
VERTEX
  5
8F0
  8
DEFAULT
  6
CONTINUOUS
 62
   254
 10
-0.067351746916
 20
1.040549456935
 30
0.0
  0
VERTEX
  5
8F1
  8
DEFAULT
  6
CONTINUOUS
 62
   254
 10
-0.06046522286
 20
1.059933514774
 30
0.0
  0
VERTEX
  5
8F2
  8
DEFAULT
  6
CONTINUOUS
 62
   254
 10
-0.051696459808
 20
1.081186752141
 30
0.0
  0
VERTEX
  5
8F3
  8
DEFAULT
  6
CONTINUOUS
 62
   254
 10
-0.043211468125
 20
1.099150930956
 30
0.0
  0
SEQEND
  5
8F4
  8
DEFAULT
  6
CONTINUOUS
 62
   254
  0
ARC
  5
8A
  8
DEFAULT
  6
CONTINUOUS
 62
   254
 10
0.000000000046
 20
0.000037150228
 30
0.0
 40
1.099962878450242
 50
87.748592425467
 51
92.251414168306
  0
POLYLINE
  5
8B
  8
DEFAULT
  6
CONTINUOUS
 62
   254
 66
     1
 10
0.0
 20
0.0
 30
0.0
  0
VERTEX
  5
8F5
  8
DEFAULT
  6
CONTINUOUS
 62
   254
 10
0.043214258326
 20
1.09915082126
 30
0.0
  0
VERTEX
  5
8F6
  8
DEFAULT
  6
CONTINUOUS
 62
   254
 10
0.043214258326
 20
1.09915082126
 30
0.0
  0
VERTEX
  5
8F7
  8
DEFAULT
  6
CONTINUOUS
 62
   254
 10
0.051699204406
 20
1.081186620906
 30
0.0
  0
VERTEX
  5
8F8
  8
DEFAULT
  6
CONTINUOUS
 62
   254
 10
0.060467913507
 20
1.05993336128
 30
0.0
  0
VERTEX
  5
8F9
  8
DEFAULT
  6
CONTINUOUS
 62
   254
 10
0.067354388356
 20
1.040549285959
 30
0.0
  0
VERTEX
  5
8FA
  8
DEFAULT
  6
CONTINUOUS
 62
   254
 10
0.072569408934
 20
1.02316371687
 30
0.0
  0
VERTEX
  5
8FB
  8
DEFAULT
  6
CONTINUOUS
 62
   254
 10
0.076331689962
 20
1.007889484764
 30
0.0
  0
VERTEX
  5
8FC
  8
DEFAULT
  6
CONTINUOUS
 62
   254
 10
0.078866754977
 20
0.9948224738
 30
0.0
  0
VERTEX
  5
8FD
  8
DEFAULT
  6
CONTINUOUS
 62
   254
 10
0.080405785444
 20
0.984041237642
 30
0.0
  0
VERTEX
  5
8FE
  8
DEFAULT
  6
CONTINUOUS
 62
   254
 10
0.081184449248
 20
0.975606688413
 30
0.0
  0
VERTEX
  5
8FF
  8
DEFAULT
  6
CONTINUOUS
 62
   254
 10
0.081441712992
 20
0.969561859548
 30
0.0
  0
VERTEX
  5
900
  8
DEFAULT
  6
CONTINUOUS
 62
   254
 10
0.081418642545
 20
0.96593174337
 30
0.0
  0
VERTEX
  5
901
  8
DEFAULT
  6
CONTINUOUS
 62
   254
 10
0.081357196352
 20
0.964723203915
 30
0.0
  0
VERTEX
  5
902
  8
DEFAULT
  6
CONTINUOUS
 62
   254
 10
0.074311154347
 20
0.88117214115
 30
0.0
  0
SEQEND
  5
903
  8
DEFAULT
  6
CONTINUOUS
 62
   254
  0
ARC
  5
8C
  8
DEFAULT
  6
CONTINUOUS
 62
   254
 10
0.000002518283
 20
0.000015899679
 30
0.0
 40
0.8842839449392313
 50
76.82040170236
 51
85.179604891505
  0
POLYLINE
  5
8D
  8
DEFAULT
  6
CONTINUOUS
 62
   254
 66
     1
 10
0.0
 20
0.0
 30
0.0
  0
VERTEX
  5
904
  8
DEFAULT
  6
CONTINUOUS
 62
   254
 10
0.201625244683
 20
0.86100740456
 30
0.0
  0
VERTEX
  5
905
  8
DEFAULT
  6
CONTINUOUS
 62
   254
 10
0.220742966053
 20
0.942646485438
 30
0.0
  0
VERTEX
  5
906
  8
DEFAULT
  6
CONTINUOUS
 62
   254
 10
0.221057989447
 20
0.94381486188
 30
0.0
  0
VERTEX
  5
907
  8
DEFAULT
  6
CONTINUOUS
 62
   254
 10
0.22215782452
 20
0.947274433894
 30
0.0
  0
VERTEX
  5
908
  8
DEFAULT
  6
CONTINUOUS
 62
   254
 10
0.22427046612
 20
0.952943903544
 30
0.0
  0
VERTEX
  5
909
  8
DEFAULT
  6
CONTINUOUS
 62
   254
 10
0.227617458209
 20
0.960725007706
 30
0.0
  0
VERTEX
  5
90A
  8
DEFAULT
  6
CONTINUOUS
 62
   254
 10
0.232412773178
 20
0.970502973865
 30
0.0
  0
VERTEX
  5
90B
  8
DEFAULT
  6
CONTINUOUS
 62
   254
 10
0.238861721292
 20
0.98214704525
 30
0.0
  0
VERTEX
  5
90C
  8
DEFAULT
  6
CONTINUOUS
 62
   254
 10
0.247159894401
 20
0.995511073385
 30
0.0
  0
VERTEX
  5
90D
  8
DEFAULT
  6
CONTINUOUS
 62
   254
 10
0.257492147892
 20
1.010434175944
 30
0.0
  0
VERTEX
  5
90E
  8
DEFAULT
  6
CONTINUOUS
 62
   254
 10
0.270031624762
 20
1.026741457498
 30
0.0
  0
VERTEX
  5
90F
  8
DEFAULT
  6
CONTINUOUS
 62
   254
 10
0.284938825535
 20
1.044244790585
 30
0.0
  0
VERTEX
  5
910
  8
DEFAULT
  6
CONTINUOUS
 62
   254
 10
0.298559768709
 20
1.058707733281
 30
0.0
  0
SEQEND
  5
911
  8
DEFAULT
  6
CONTINUOUS
 62
   254
  0
ARC
  5
8E
  8
DEFAULT
  6
CONTINUOUS
 62
   254
 10
0.000011480097
 20
0.000035331953
 30
0.0
 40
1.099962878449407
 50
69.748592425526
 51
74.251414168364
  0
POLYLINE
  5
8F
  8
DEFAULT
  6
CONTINUOUS
 62
   254
 66
     1
 10
0.0
 20
0.0
 30
0.0
  0
VERTEX
  5
912
  8
DEFAULT
  6
CONTINUOUS
 62
   254
 10
0.380755485128
 20
1.032000610729
 30
0.0
  0
VERTEX
  5
913
  8
DEFAULT
  6
CONTINUOUS
 62
   254
 10
0.380755485128
 20
1.032000610729
 30
0.0
  0
VERTEX
  5
914
  8
DEFAULT
  6
CONTINUOUS
 62
   254
 10
0.383273905188
 20
1.012293648387
 30
0.0
  0
VERTEX
  5
915
  8
DEFAULT
  6
CONTINUOUS
 62
   254
 10
0.385045824708
 20
0.989370917196
 30
0.0
  0
VERTEX
  5
916
  8
DEFAULT
  6
CONTINUOUS
 62
   254
 10
0.385605242793
 20
0.96880752829
 30
0.0
  0
VERTEX
  5
917
  8
DEFAULT
  6
CONTINUOUS
 62
   254
 10
0.385192585791
 20
0.950661339534
 30
0.0
  0
VERTEX
  5
918
  8
DEFAULT
  6
CONTINUOUS
 62
   254
 10
0.384050730382
 20
0.934972072783
 30
0.0
  0
VERTEX
  5
919
  8
DEFAULT
  6
CONTINUOUS
 62
   254
 10
0.382423792031
 20
0.921761228685
 30
0.0
  0
VERTEX
  5
91A
  8
DEFAULT
  6
CONTINUOUS
 62
   254
 10
0.380555911791
 20
0.911032077214
 30
0.0
  0
VERTEX
  5
91B
  8
DEFAULT
  6
CONTINUOUS
 62
   254
 10
0.378690046024
 20
0.902769723859
 30
0.0
  0
VERTEX
  5
91C
  8
DEFAULT
  6
CONTINUOUS
 62
   254
 10
0.377066763538
 20
0.896941251109
 30
0.0
  0
VERTEX
  5
91D
  8
DEFAULT
  6
CONTINUOUS
 62
   254
 10
0.375923054647
 20
0.893495934623
 30
0.0
  0
VERTEX
  5
91E
  8
DEFAULT
  6
CONTINUOUS
 62
   254
 10
0.375491156616
 20
0.892365533217
 30
0.0
  0
VERTEX
  5
91F
  8
DEFAULT
  6
CONTINUOUS
 62
   254
 10
0.34297127416
 20
0.815081097254
 30
0.0
  0
SEQEND
  5
920
  8
DEFAULT
  6
CONTINUOUS
 62
   254
  0
ARC
  5
90
  8
DEFAULT
  6
CONTINUOUS
 62
   254
 10
0.0000073083
 20
0.000014343301
 30
0.0
 40
0.8842839449392605
 50
58.820401702371
 51
67.179604891516
  0
CIRCLE
  5
91
  8
DEFAULT
  6
CONTINUOUS
 62
   254
 10
0.0
 20
0.0
 30
0.0
 40
0.125
  0
LINE
  5
92
  8
0
  6
CONTINUOUS
 62
     3
 10
0.8791204
 20
-0.0955791
 30
0.0
 11
0.8791204
 21
-0.0955791
 31
0.0
  0
LINE
  5
93
  8
0
  6
CONTINUOUS
 62
     3
 10
0.8791204
 20
-0.0955791
 30
0.0
 11
0.8836169
 21
-0.0871016
 31
0.0
  0
LINE
  5
94
  8
0
  6
CONTINUOUS
 62
     3
 10
0.8836169
 20
-0.0871016
 30
0.0
 11
0.8947821
 21
-0.080397
 31
0.0
  0
LINE
  5
95
  8
0
  6
CONTINUOUS
 62
     3
 10
0.8947821
 20
-0.080397
 30
0.0
 11
0.9123283
 21
-0.0764519
 31
0.0
  0
LINE
  5
96
  8
0
  6
CONTINUOUS
 62
     3
 10
0.9123283
 20
-0.0764519
 30
0.0
 11
0.9358548
 21
-0.0762152
 31
0.0
  0
LINE
  5
97
  8
0
  6
CONTINUOUS
 62
     3
 10
0.9358548
 20
-0.0762152
 30
0.0
 11
0.9647271
 21
-0.0813105
 31
0.0
  0
LINE
  5
98
  8
0
  6
CONTINUOUS
 62
     3
 10
0.9647271
 20
-0.0813105
 30
0.0
 11
0.9747864
 21
-0.0811892
 31
0.0
  0
LINE
  5
99
  8
0
  6
CONTINUOUS
 62
     3
 10
0.9747864
 20
-0.0811892
 30
0.0
 11
0.9848085
 21
-0.0802677
 31
0.0
  0
LINE
  5
9A
  8
0
  6
CONTINUOUS
 62
     3
 10
0.9848085
 20
-0.0802677
 30
0.0
 11
0.9947699
 21
-0.078828
 31
0.0
  0
LINE
  5
9B
  8
0
  6
CONTINUOUS
 62
     3
 10
0.9947699
 20
-0.078828
 30
0.0
 11
1.0046625
 21
-0.076972
 31
0.0
  0
LINE
  5
9C
  8
0
  6
CONTINUOUS
 62
     3
 10
1.0046625
 20
-0.076972
 30
0.0
 11
1.0144815
 21
-0.0747592
 31
0.0
  0
LINE
  5
9D
  8
0
  6
CONTINUOUS
 62
     3
 10
1.0144815
 20
-0.0747592
 30
0.0
 11
1.0242241
 21
-0.0722302
 31
0.0
  0
LINE
  5
9E
  8
0
  6
CONTINUOUS
 62
     3
 10
1.0242241
 20
-0.0722302
 30
0.0
 11
1.0338878
 21
-0.069415
 31
0.0
  0
LINE
  5
9F
  8
0
  6
CONTINUOUS
 62
     3
 10
1.0338878
 20
-0.069415
 30
0.0
 11
1.0434713
 21
-0.0663372
 31
0.0
  0
LINE
  5
A0
  8
0
  6
CONTINUOUS
 62
     3
 10
1.0434713
 20
-0.0663372
 30
0.0
 11
1.0529731
 21
-0.0630159
 31
0.0
  0
LINE
  5
A1
  8
0
  6
CONTINUOUS
 62
     3
 10
1.0529731
 20
-0.0630159
 30
0.0
 11
1.0623923
 21
-0.059467
 31
0.0
  0
LINE
  5
A2
  8
0
  6
CONTINUOUS
 62
     3
 10
1.0623923
 20
-0.059467
 30
0.0
 11
1.0717281
 21
-0.0557042
 31
0.0
  0
LINE
  5
A3
  8
0
  6
CONTINUOUS
 62
     3
 10
1.0717281
 20
-0.0557042
 30
0.0
 11
1.0809799
 21
-0.0517392
 31
0.0
  0
LINE
  5
A4
  8
0
  6
CONTINUOUS
 62
     3
 10
1.0809799
 20
-0.0517392
 30
0.0
 11
1.0901471
 21
-0.0475824
 31
0.0
  0
LINE
  5
A5
  8
0
  6
CONTINUOUS
 62
     3
 10
1.0901471
 20
-0.0475824
 30
0.0
 11
1.0992294
 21
-0.0432431
 31
0.0
  0
LINE
  5
A6
  8
0
  6
CONTINUOUS
 62
     3
 10
1.0992294
 20
-0.0432431
 30
0.0
 11
1.0992294
 21
0.0432431
 31
0.0
  0
LINE
  5
A7
  8
0
  6
CONTINUOUS
 62
     3
 10
1.0992294
 20
0.0432431
 30
0.0
 11
1.0901471
 21
0.0475824
 31
0.0
  0
LINE
  5
A8
  8
0
  6
CONTINUOUS
 62
     3
 10
1.0901471
 20
0.0475824
 30
0.0
 11
1.0809799
 21
0.0517392
 31
0.0
  0
LINE
  5
A9
  8
0
  6
CONTINUOUS
 62
     3
 10
1.0809799
 20
0.0517392
 30
0.0
 11
1.0717281
 21
0.0557042
 31
0.0
  0
LINE
  5
AA
  8
0
  6
CONTINUOUS
 62
     3
 10
1.0717281
 20
0.0557042
 30
0.0
 11
1.0623923
 21
0.059467
 31
0.0
  0
LINE
  5
AB
  8
0
  6
CONTINUOUS
 62
     3
 10
1.0623923
 20
0.059467
 30
0.0
 11
1.0529731
 21
0.0630159
 31
0.0
  0
LINE
  5
AC
  8
0
  6
CONTINUOUS
 62
     3
 10
1.0529731
 20
0.0630159
 30
0.0
 11
1.0434713
 21
0.0663372
 31
0.0
  0
LINE
  5
AD
  8
0
  6
CONTINUOUS
 62
     3
 10
1.0434713
 20
0.0663372
 30
0.0
 11
1.0338878
 21
0.069415
 31
0.0
  0
LINE
  5
AE
  8
0
  6
CONTINUOUS
 62
     3
 10
1.0338878
 20
0.069415
 30
0.0
 11
1.0242241
 21
0.0722302
 31
0.0
  0
LINE
  5
AF
  8
0
  6
CONTINUOUS
 62
     3
 10
1.0242241
 20
0.0722302
 30
0.0
 11
1.0144815
 21
0.0747592
 31
0.0
  0
LINE
  5
B0
  8
0
  6
CONTINUOUS
 62
     3
 10
1.0144815
 20
0.0747592
 30
0.0
 11
1.0046625
 21
0.076972
 31
0.0
  0
LINE
  5
B1
  8
0
  6
CONTINUOUS
 62
     3
 10
1.0046625
 20
0.076972
 30
0.0
 11
0.9947699
 21
0.078828
 31
0.0
  0
LINE
  5
B2
  8
0
  6
CONTINUOUS
 62
     3
 10
0.9947699
 20
0.078828
 30
0.0
 11
0.9848085
 21
0.0802677
 31
0.0
  0
LINE
  5
B3
  8
0
  6
CONTINUOUS
 62
     3
 10
0.9848085
 20
0.0802677
 30
0.0
 11
0.9747864
 21
0.0811892
 31
0.0
  0
LINE
  5
B4
  8
0
  6
CONTINUOUS
 62
     3
 10
0.9747864
 20
0.0811892
 30
0.0
 11
0.9647271
 21
0.0813105
 31
0.0
  0
LINE
  5
B5
  8
0
  6
CONTINUOUS
 62
     3
 10
0.9647271
 20
0.0813105
 30
0.0
 11
0.9358548
 21
0.0762152
 31
0.0
  0
LINE
  5
B6
  8
0
  6
CONTINUOUS
 62
     3
 10
0.9358548
 20
0.0762152
 30
0.0
 11
0.9123283
 21
0.0764519
 31
0.0
  0
LINE
  5
B7
  8
0
  6
CONTINUOUS
 62
     3
 10
0.9123283
 20
0.0764519
 30
0.0
 11
0.8947821
 21
0.080397
 31
0.0
  0
LINE
  5
B8
  8
0
  6
CONTINUOUS
 62
     3
 10
0.8947821
 20
0.080397
 30
0.0
 11
0.8836169
 21
0.0871016
 31
0.0
  0
LINE
  5
B9
  8
0
  6
CONTINUOUS
 62
     3
 10
0.8836169
 20
0.0871016
 30
0.0
 11
0.8791204
 21
0.0955791
 31
0.0
  0
LINE
  5
BA
  8
0
  6
CONTINUOUS
 62
     3
 10
0.8791204
 20
0.0955791
 30
0.0
 11
0.8656288
 21
0.180762
 31
0.0
  0
LINE
  5
BB
  8
0
  6
CONTINUOUS
 62
     3
 10
0.8656288
 20
0.180762
 30
0.0
 11
0.8672854
 21
0.1902141
 31
0.0
  0
LINE
  5
BC
  8
0
  6
CONTINUOUS
 62
     3
 10
0.8672854
 20
0.1902141
 30
0.0
 11
0.8758324
 21
0.2000407
 31
0.0
  0
LINE
  5
BD
  8
0
  6
CONTINUOUS
 62
     3
 10
0.8758324
 20
0.2000407
 30
0.0
 11
0.8913007
 21
0.2092149
 31
0.0
  0
LINE
  5
BE
  8
0
  6
CONTINUOUS
 62
     3
 10
0.8913007
 20
0.2092149
 30
0.0
 11
0.9136026
 21
0.2167101
 31
0.0
  0
LINE
  5
BF
  8
0
  6
CONTINUOUS
 62
     3
 10
0.9136026
 20
0.2167101
 30
0.0
 11
0.9426364
 21
0.2207862
 31
0.0
  0
LINE
  5
C0
  8
0
  6
CONTINUOUS
 62
     3
 10
0.9426364
 20
0.2207862
 30
0.0
 11
0.9521658
 21
0.22401
 31
0.0
  0
LINE
  5
C1
  8
0
  6
CONTINUOUS
 62
     3
 10
0.9521658
 20
0.22401
 30
0.0
 11
0.9614126
 21
0.2279834
 31
0.0
  0
LINE
  5
C2
  8
0
  6
CONTINUOUS
 62
     3
 10
0.9614126
 20
0.2279834
 30
0.0
 11
0.9704416
 21
0.2324309
 31
0.0
  0
LINE
  5
C3
  8
0
  6
CONTINUOUS
 62
     3
 10
0.9704416
 20
0.2324309
 30
0.0
 11
0.9792764
 21
0.2372531
 31
0.0
  0
LINE
  5
C4
  8
0
  6
CONTINUOUS
 62
     3
 10
0.9792764
 20
0.2372531
 30
0.0
 11
0.9879311
 21
0.2423918
 31
0.0
  0
LINE
  5
C5
  8
0
  6
CONTINUOUS
 62
     3
 10
0.9879311
 20
0.2423918
 30
0.0
 11
0.9964153
 21
0.2478077
 31
0.0
  0
LINE
  5
C6
  8
0
  6
CONTINUOUS
 62
     3
 10
0.9964153
 20
0.2478077
 30
0.0
 11
1.0047362
 21
0.2534713
 31
0.0
  0
LINE
  5
C7
  8
0
  6
CONTINUOUS
 62
     3
 10
1.0047362
 20
0.2534713
 30
0.0
 11
1.0128995
 21
0.2593599
 31
0.0
  0
LINE
  5
C8
  8
0
  6
CONTINUOUS
 62
     3
 10
1.0128995
 20
0.2593599
 30
0.0
 11
1.0209099
 21
0.2654549
 31
0.0
  0
LINE
  5
C9
  8
0
  6
CONTINUOUS
 62
     3
 10
1.0209099
 20
0.2654549
 30
0.0
 11
1.0287714
 21
0.2717408
 31
0.0
  0
LINE
  5
CA
  8
0
  6
CONTINUOUS
 62
     3
 10
1.0287714
 20
0.2717408
 30
0.0
 11
1.0364875
 21
0.2782043
 31
0.0
  0
LINE
  5
CB
  8
0
  6
CONTINUOUS
 62
     3
 10
1.0364875
 20
0.2782043
 30
0.0
 11
1.0440612
 21
0.2848342
 31
0.0
  0
LINE
  5
CC
  8
0
  6
CONTINUOUS
 62
     3
 10
1.0440612
 20
0.2848342
 30
0.0
 11
1.0514953
 21
0.2916204
 31
0.0
  0
LINE
  5
CD
  8
0
  6
CONTINUOUS
 62
     3
 10
1.0514953
 20
0.2916204
 30
0.0
 11
1.0587921
 21
0.2985539
 31
0.0
  0
LINE
  5
CE
  8
0
  6
CONTINUOUS
 62
     3
 10
1.0587921
 20
0.2985539
 30
0.0
 11
1.0320664
 21
0.3808072
 31
0.0
  0
LINE
  5
CF
  8
0
  6
CONTINUOUS
 62
     3
 10
1.0320664
 20
0.3808072
 30
0.0
 11
1.0220877
 21
0.3821276
 31
0.0
  0
LINE
  5
D0
  8
0
  6
CONTINUOUS
 62
     3
 10
1.0220877
 20
0.3821276
 30
0.0
 11
1.0120846
 21
0.3832481
 31
0.0
  0
LINE
  5
D1
  8
0
  6
CONTINUOUS
 62
     3
 10
1.0120846
 20
0.3832481
 30
0.0
 11
1.0020604
 21
0.38416
 31
0.0
  0
LINE
  5
D2
  8
0
  6
CONTINUOUS
 62
     3
 10
1.0020604
 20
0.38416
 30
0.0
 11
0.9920188
 21
0.3848538
 31
0.0
  0
LINE
  5
D3
  8
0
  6
CONTINUOUS
 62
     3
 10
0.9920188
 20
0.3848538
 30
0.0
 11
0.9819639
 21
0.3853183
 31
0.0
  0
LINE
  5
D4
  8
0
  6
CONTINUOUS
 62
     3
 10
0.9819639
 20
0.3853183
 30
0.0
 11
0.9719008
 21
0.3855408
 31
0.0
  0
LINE
  5
D5
  8
0
  6
CONTINUOUS
 62
     3
 10
0.9719008
 20
0.3855408
 30
0.0
 11
0.9618353
 21
0.3855065
 31
0.0
  0
LINE
  5
D6
  8
0
  6
CONTINUOUS
 62
     3
 10
0.9618353
 20
0.3855065
 30
0.0
 11
0.9517746
 21
0.3851976
 31
0.0
  0
LINE
  5
D7
  8
0
  6
CONTINUOUS
 62
     3
 10
0.9517746
 20
0.3851976
 30
0.0
 11
0.9417274
 21
0.3845923
 31
0.0
  0
LINE
  5
D8
  8
0
  6
CONTINUOUS
 62
     3
 10
0.9417274
 20
0.3845923
 30
0.0
 11
0.9317051
 21
0.3836625
 31
0.0
  0
LINE
  5
D9
  8
0
  6
CONTINUOUS
 62
     3
 10
0.9317051
 20
0.3836625
 30
0.0
 11
0.9217232
 21
0.3823707
 31
0.0
  0
LINE
  5
DA
  8
0
  6
CONTINUOUS
 62
     3
 10
0.9217232
 20
0.3823707
 30
0.0
 11
0.9118044
 21
0.3806617
 31
0.0
  0
LINE
  5
DB
  8
0
  6
CONTINUOUS
 62
     3
 10
0.9118044
 20
0.3806617
 30
0.0
 11
0.9019881
 21
0.3784411
 31
0.0
  0
LINE
  5
DC
  8
0
  6
CONTINUOUS
 62
     3
 10
0.9019881
 20
0.3784411
 30
0.0
 11
0.8923837
 21
0.3754479
 31
0.0
  0
LINE
  5
DD
  8
0
  6
CONTINUOUS
 62
     3
 10
0.8923837
 20
0.3754479
 30
0.0
 11
0.866499
 21
0.36168
 31
0.0
  0
LINE
  5
DE
  8
0
  6
CONTINUOUS
 62
     3
 10
0.866499
 20
0.36168
 30
0.0
 11
0.8440509
 21
0.354635
 31
0.0
  0
LINE
  5
DF
  8
0
  6
CONTINUOUS
 62
     3
 10
0.8440509
 20
0.354635
 30
0.0
 11
0.8261443
 21
0.352965
 31
0.0
  0
LINE
  5
E0
  8
0
  6
CONTINUOUS
 62
     3
 10
0.8261443
 20
0.352965
 30
0.0
 11
0.8134537
 21
0.3558911
 31
0.0
  0
LINE
  5
E1
  8
0
  6
CONTINUOUS
 62
     3
 10
0.8134537
 20
0.3558911
 30
0.0
 11
0.8065576
 21
0.3625643
 31
0.0
  0
LINE
  5
E2
  8
0
  6
CONTINUOUS
 62
     3
 10
0.8065576
 20
0.3625643
 30
0.0
 11
0.7674034
 21
0.4394089
 31
0.0
  0
LINE
  5
E3
  8
0
  6
CONTINUOUS
 62
     3
 10
0.7674034
 20
0.4394089
 30
0.0
 11
0.7660581
 21
0.4489103
 31
0.0
  0
LINE
  5
E4
  8
0
  6
CONTINUOUS
 62
     3
 10
0.7660581
 20
0.4489103
 30
0.0
 11
0.7711501
 21
0.4608971
 31
0.0
  0
LINE
  5
E5
  8
0
  6
CONTINUOUS
 62
     3
 10
0.7711501
 20
0.4608971
 30
0.0
 11
0.7830264
 21
0.4744023
 31
0.0
  0
LINE
  5
E6
  8
0
  6
CONTINUOUS
 62
     3
 10
0.7830264
 20
0.4744023
 30
0.0
 11
0.8019206
 21
0.4884222
 31
0.0
  0
LINE
  5
E7
  8
0
  6
CONTINUOUS
 62
     3
 10
0.8019206
 20
0.4884222
 30
0.0
 11
0.8282737
 21
0.5012708
 31
0.0
  0
LINE
  5
E8
  8
0
  6
CONTINUOUS
 62
     3
 10
0.8282737
 20
0.5012708
 30
0.0
 11
0.8363406
 21
0.5072816
 31
0.0
  0
LINE
  5
E9
  8
0
  6
CONTINUOUS
 62
     3
 10
0.8363406
 20
0.5072816
 30
0.0
 11
0.843907
 21
0.5139179
 31
0.0
  0
LINE
  5
EA
  8
0
  6
CONTINUOUS
 62
     3
 10
0.843907
 20
0.5139179
 30
0.0
 11
0.8511197
 21
0.5209379
 31
0.0
  0
LINE
  5
EB
  8
0
  6
CONTINUOUS
 62
     3
 10
0.8511197
 20
0.5209379
 30
0.0
 11
0.858032
 21
0.5282541
 31
0.0
  0
LINE
  5
EC
  8
0
  6
CONTINUOUS
 62
     3
 10
0.858032
 20
0.5282541
 30
0.0
 11
0.8646752
 21
0.5358158
 31
0.0
  0
LINE
  5
ED
  8
0
  6
CONTINUOUS
 62
     3
 10
0.8646752
 20
0.5358158
 30
0.0
 11
0.8710705
 21
0.5435884
 31
0.0
  0
LINE
  5
EE
  8
0
  6
CONTINUOUS
 62
     3
 10
0.8710705
 20
0.5435884
 30
0.0
 11
0.877234
 21
0.5515461
 31
0.0
  0
LINE
  5
EF
  8
0
  6
CONTINUOUS
 62
     3
 10
0.877234
 20
0.5515461
 30
0.0
 11
0.883178
 21
0.5596691
 31
0.0
  0
LINE
  5
F0
  8
0
  6
CONTINUOUS
 62
     3
 10
0.883178
 20
0.5596691
 30
0.0
 11
0.8889129
 21
0.5679411
 31
0.0
  0
LINE
  5
F1
  8
0
  6
CONTINUOUS
 62
     3
 10
0.8889129
 20
0.5679411
 30
0.0
 11
0.8944472
 21
0.5763487
 31
0.0
  0
LINE
  5
F2
  8
0
  6
CONTINUOUS
 62
     3
 10
0.8944472
 20
0.5763487
 30
0.0
 11
0.8997883
 21
0.5848803
 31
0.0
  0
LINE
  5
F3
  8
0
  6
CONTINUOUS
 62
     3
 10
0.8997883
 20
0.5848803
 30
0.0
 11
0.9049426
 21
0.5935261
 31
0.0
  0
LINE
  5
F4
  8
0
  6
CONTINUOUS
 62
     3
 10
0.9049426
 20
0.5935261
 30
0.0
 11
0.9099158
 21
0.6022774
 31
0.0
  0
LINE
  5
F5
  8
0
  6
CONTINUOUS
 62
     3
 10
0.9099158
 20
0.6022774
 30
0.0
 11
0.9147129
 21
0.6111264
 31
0.0
  0
LINE
  5
F6
  8
0
  6
CONTINUOUS
 62
     3
 10
0.9147129
 20
0.6111264
 30
0.0
 11
0.8638776
 21
0.6810952
 31
0.0
  0
LINE
  5
F7
  8
0
  6
CONTINUOUS
 62
     3
 10
0.8638776
 20
0.6810952
 30
0.0
 11
0.8539793
 21
0.6792674
 31
0.0
  0
LINE
  5
F8
  8
0
  6
CONTINUOUS
 62
     3
 10
0.8539793
 20
0.6792674
 30
0.0
 11
0.8441195
 21
0.6772419
 31
0.0
  0
LINE
  5
F9
  8
0
  6
CONTINUOUS
 62
     3
 10
0.8441195
 20
0.6772419
 30
0.0
 11
0.8343041
 21
0.6750116
 31
0.0
  0
LINE
  5
FA
  8
0
  6
CONTINUOUS
 62
     3
 10
0.8343041
 20
0.6750116
 30
0.0
 11
0.8245395
 21
0.6725683
 31
0.0
  0
LINE
  5
FB
  8
0
  6
CONTINUOUS
 62
     3
 10
0.8245395
 20
0.6725683
 30
0.0
 11
0.8148333
 21
0.669903
 31
0.0
  0
LINE
  5
FC
  8
0
  6
CONTINUOUS
 62
     3
 10
0.8148333
 20
0.669903
 30
0.0
 11
0.8051939
 21
0.667005
 31
0.0
  0
LINE
  5
FD
  8
0
  6
CONTINUOUS
 62
     3
 10
0.8051939
 20
0.667005
 30
0.0
 11
0.7956317
 21
0.6638619
 31
0.0
  0
LINE
  5
FE
  8
0
  6
CONTINUOUS
 62
     3
 10
0.7956317
 20
0.6638619
 30
0.0
 11
0.7861588
 21
0.6604592
 31
0.0
  0
LINE
  5
FF
  8
0
  6
CONTINUOUS
 62
     3
 10
0.7861588
 20
0.6604592
 30
0.0
 11
0.7767905
 21
0.6567788
 31
0.0
  0
LINE
  5
100
  8
0
  6
CONTINUOUS
 62
     3
 10
0.7767905
 20
0.6567788
 30
0.0
 11
0.767546
 21
0.6527974
 31
0.0
  0
LINE
  5
101
  8
0
  6
CONTINUOUS
 62
     3
 10
0.767546
 20
0.6527974
 30
0.0
 11
0.7584518
 21
0.6484843
 31
0.0
  0
LINE
  5
102
  8
0
  6
CONTINUOUS
 62
     3
 10
0.7584518
 20
0.6484843
 30
0.0
 11
0.7495466
 21
0.6437938
 31
0.0
  0
LINE
  5
103
  8
0
  6
CONTINUOUS
 62
     3
 10
0.7495466
 20
0.6437938
 30
0.0
 11
0.7408969
 21
0.6386485
 31
0.0
  0
LINE
  5
104
  8
0
  6
CONTINUOUS
 62
     3
 10
0.7408969
 20
0.6386485
 30
0.0
 11
0.7326876
 21
0.6328339
 31
0.0
  0
LINE
  5
105
  8
0
  6
CONTINUOUS
 62
     3
 10
0.7326876
 20
0.6328339
 30
0.0
 11
0.7123242
 21
0.611741
 31
0.0
  0
LINE
  5
106
  8
0
  6
CONTINUOUS
 62
     3
 10
0.7123242
 20
0.611741
 30
0.0
 11
0.6931518
 21
0.598104
 31
0.0
  0
LINE
  5
107
  8
0
  6
CONTINUOUS
 62
     3
 10
0.6931518
 20
0.598104
 30
0.0
 11
0.6766377
 21
0.5909823
 31
0.0
  0
LINE
  5
108
  8
0
  6
CONTINUOUS
 62
     3
 10
0.6766377
 20
0.5909823
 30
0.0
 11
0.663664
 21
0.5898436
 31
0.0
  0
LINE
  5
109
  8
0
  6
CONTINUOUS
 62
     3
 10
0.663664
 20
0.5898436
 30
0.0
 11
0.6550434
 21
0.5940592
 31
0.0
  0
LINE
  5
10A
  8
0
  6
CONTINUOUS
 62
     3
 10
0.6550434
 20
0.5940592
 30
0.0
 11
0.5940592
 21
0.6550434
 31
0.0
  0
LINE
  5
10B
  8
0
  6
CONTINUOUS
 62
     3
 10
0.5940592
 20
0.6550434
 30
0.0
 11
0.5898436
 21
0.663664
 31
0.0
  0
LINE
  5
10C
  8
0
  6
CONTINUOUS
 62
     3
 10
0.5898436
 20
0.663664
 30
0.0
 11
0.5909823
 21
0.6766377
 31
0.0
  0
LINE
  5
10D
  8
0
  6
CONTINUOUS
 62
     3
 10
0.5909823
 20
0.6766377
 30
0.0
 11
0.598104
 21
0.6931518
 31
0.0
  0
LINE
  5
10E
  8
0
  6
CONTINUOUS
 62
     3
 10
0.598104
 20
0.6931518
 30
0.0
 11
0.611741
 21
0.7123242
 31
0.0
  0
LINE
  5
10F
  8
0
  6
CONTINUOUS
 62
     3
 10
0.611741
 20
0.7123242
 30
0.0
 11
0.6328339
 21
0.7326876
 31
0.0
  0
LINE
  5
110
  8
0
  6
CONTINUOUS
 62
     3
 10
0.6328339
 20
0.7326876
 30
0.0
 11
0.6386485
 21
0.7408969
 31
0.0
  0
LINE
  5
111
  8
0
  6
CONTINUOUS
 62
     3
 10
0.6386485
 20
0.7408969
 30
0.0
 11
0.6437938
 21
0.7495466
 31
0.0
  0
LINE
  5
112
  8
0
  6
CONTINUOUS
 62
     3
 10
0.6437938
 20
0.7495466
 30
0.0
 11
0.6484843
 21
0.7584518
 31
0.0
  0
LINE
  5
113
  8
0
  6
CONTINUOUS
 62
     3
 10
0.6484843
 20
0.7584518
 30
0.0
 11
0.6527974
 21
0.767546
 31
0.0
  0
LINE
  5
114
  8
0
  6
CONTINUOUS
 62
     3
 10
0.6527974
 20
0.767546
 30
0.0
 11
0.6567788
 21
0.7767905
 31
0.0
  0
LINE
  5
115
  8
0
  6
CONTINUOUS
 62
     3
 10
0.6567788
 20
0.7767905
 30
0.0
 11
0.6604592
 21
0.7861588
 31
0.0
  0
LINE
  5
116
  8
0
  6
CONTINUOUS
 62
     3
 10
0.6604592
 20
0.7861588
 30
0.0
 11
0.6638619
 21
0.7956317
 31
0.0
  0
LINE
  5
117
  8
0
  6
CONTINUOUS
 62
     3
 10
0.6638619
 20
0.7956317
 30
0.0
 11
0.667005
 21
0.8051939
 31
0.0
  0
LINE
  5
118
  8
0
  6
CONTINUOUS
 62
     3
 10
0.667005
 20
0.8051939
 30
0.0
 11
0.669903
 21
0.8148333
 31
0.0
  0
LINE
  5
119
  8
0
  6
CONTINUOUS
 62
     3
 10
0.669903
 20
0.8148333
 30
0.0
 11
0.6725683
 21
0.8245395
 31
0.0
  0
LINE
  5
11A
  8
0
  6
CONTINUOUS
 62
     3
 10
0.6725683
 20
0.8245395
 30
0.0
 11
0.6750116
 21
0.8343041
 31
0.0
  0
LINE
  5
11B
  8
0
  6
CONTINUOUS
 62
     3
 10
0.6750116
 20
0.8343041
 30
0.0
 11
0.6772419
 21
0.8441195
 31
0.0
  0
LINE
  5
11C
  8
0
  6
CONTINUOUS
 62
     3
 10
0.6772419
 20
0.8441195
 30
0.0
 11
0.6792674
 21
0.8539793
 31
0.0
  0
LINE
  5
11D
  8
0
  6
CONTINUOUS
 62
     3
 10
0.6792674
 20
0.8539793
 30
0.0
 11
0.6810952
 21
0.8638776
 31
0.0
  0
LINE
  5
11E
  8
0
  6
CONTINUOUS
 62
     3
 10
0.6810952
 20
0.8638776
 30
0.0
 11
0.6111264
 21
0.9147129
 31
0.0
  0
LINE
  5
11F
  8
0
  6
CONTINUOUS
 62
     3
 10
0.6111264
 20
0.9147129
 30
0.0
 11
0.6022774
 21
0.9099158
 31
0.0
  0
LINE
  5
120
  8
0
  6
CONTINUOUS
 62
     3
 10
0.6022774
 20
0.9099158
 30
0.0
 11
0.5935261
 21
0.9049426
 31
0.0
  0
LINE
  5
121
  8
0
  6
CONTINUOUS
 62
     3
 10
0.5935261
 20
0.9049426
 30
0.0
 11
0.5848803
 21
0.8997883
 31
0.0
  0
LINE
  5
122
  8
0
  6
CONTINUOUS
 62
     3
 10
0.5848803
 20
0.8997883
 30
0.0
 11
0.5763487
 21
0.8944472
 31
0.0
  0
LINE
  5
123
  8
0
  6
CONTINUOUS
 62
     3
 10
0.5763487
 20
0.8944472
 30
0.0
 11
0.5679411
 21
0.8889129
 31
0.0
  0
LINE
  5
124
  8
0
  6
CONTINUOUS
 62
     3
 10
0.5679411
 20
0.8889129
 30
0.0
 11
0.5596691
 21
0.883178
 31
0.0
  0
LINE
  5
125
  8
0
  6
CONTINUOUS
 62
     3
 10
0.5596691
 20
0.883178
 30
0.0
 11
0.5515461
 21
0.877234
 31
0.0
  0
LINE
  5
126
  8
0
  6
CONTINUOUS
 62
     3
 10
0.5515461
 20
0.877234
 30
0.0
 11
0.5435884
 21
0.8710705
 31
0.0
  0
LINE
  5
127
  8
0
  6
CONTINUOUS
 62
     3
 10
0.5435884
 20
0.8710705
 30
0.0
 11
0.5358158
 21
0.8646752
 31
0.0
  0
LINE
  5
128
  8
0
  6
CONTINUOUS
 62
     3
 10
0.5358158
 20
0.8646752
 30
0.0
 11
0.5282541
 21
0.858032
 31
0.0
  0
LINE
  5
129
  8
0
  6
CONTINUOUS
 62
     3
 10
0.5282541
 20
0.858032
 30
0.0
 11
0.5209379
 21
0.8511197
 31
0.0
  0
LINE
  5
12A
  8
0
  6
CONTINUOUS
 62
     3
 10
0.5209379
 20
0.8511197
 30
0.0
 11
0.5139179
 21
0.843907
 31
0.0
  0
LINE
  5
12B
  8
0
  6
CONTINUOUS
 62
     3
 10
0.5139179
 20
0.843907
 30
0.0
 11
0.5072816
 21
0.8363406
 31
0.0
  0
LINE
  5
12C
  8
0
  6
CONTINUOUS
 62
     3
 10
0.5072816
 20
0.8363406
 30
0.0
 11
0.5012708
 21
0.8282737
 31
0.0
  0
LINE
  5
12D
  8
0
  6
CONTINUOUS
 62
     3
 10
0.5012708
 20
0.8282737
 30
0.0
 11
0.4884222
 21
0.8019206
 31
0.0
  0
LINE
  5
12E
  8
0
  6
CONTINUOUS
 62
     3
 10
0.4884222
 20
0.8019206
 30
0.0
 11
0.4744023
 21
0.7830264
 31
0.0
  0
LINE
  5
12F
  8
0
  6
CONTINUOUS
 62
     3
 10
0.4744023
 20
0.7830264
 30
0.0
 11
0.4608971
 21
0.7711501
 31
0.0
  0
LINE
  5
130
  8
0
  6
CONTINUOUS
 62
     3
 10
0.4608971
 20
0.7711501
 30
0.0
 11
0.4489103
 21
0.7660581
 31
0.0
  0
LINE
  5
131
  8
0
  6
CONTINUOUS
 62
     3
 10
0.4489103
 20
0.7660581
 30
0.0
 11
0.4394089
 21
0.7674034
 31
0.0
  0
LINE
  5
132
  8
0
  6
CONTINUOUS
 62
     3
 10
0.4394089
 20
0.7674034
 30
0.0
 11
0.3625643
 21
0.8065576
 31
0.0
  0
LINE
  5
133
  8
0
  6
CONTINUOUS
 62
     3
 10
0.3625643
 20
0.8065576
 30
0.0
 11
0.3558911
 21
0.8134537
 31
0.0
  0
LINE
  5
134
  8
0
  6
CONTINUOUS
 62
     3
 10
0.3558911
 20
0.8134537
 30
0.0
 11
0.352965
 21
0.8261443
 31
0.0
  0
LINE
  5
135
  8
0
  6
CONTINUOUS
 62
     3
 10
0.352965
 20
0.8261443
 30
0.0
 11
0.354635
 21
0.8440509
 31
0.0
  0
LINE
  5
136
  8
0
  6
CONTINUOUS
 62
     3
 10
0.354635
 20
0.8440509
 30
0.0
 11
0.36168
 21
0.866499
 31
0.0
  0
LINE
  5
137
  8
0
  6
CONTINUOUS
 62
     3
 10
0.36168
 20
0.866499
 30
0.0
 11
0.3754479
 21
0.8923837
 31
0.0
  0
LINE
  5
138
  8
0
  6
CONTINUOUS
 62
     3
 10
0.3754479
 20
0.8923837
 30
0.0
 11
0.3784411
 21
0.9019881
 31
0.0
  0
LINE
  5
139
  8
0
  6
CONTINUOUS
 62
     3
 10
0.3784411
 20
0.9019881
 30
0.0
 11
0.3806617
 21
0.9118044
 31
0.0
  0
LINE
  5
13A
  8
0
  6
CONTINUOUS
 62
     3
 10
0.3806617
 20
0.9118044
 30
0.0
 11
0.3823707
 21
0.9217232
 31
0.0
  0
LINE
  5
13B
  8
0
  6
CONTINUOUS
 62
     3
 10
0.3823707
 20
0.9217232
 30
0.0
 11
0.3836625
 21
0.9317051
 31
0.0
  0
LINE
  5
13C
  8
0
  6
CONTINUOUS
 62
     3
 10
0.3836625
 20
0.9317051
 30
0.0
 11
0.3845923
 21
0.9417274
 31
0.0
  0
LINE
  5
13D
  8
0
  6
CONTINUOUS
 62
     3
 10
0.3845923
 20
0.9417274
 30
0.0
 11
0.3851976
 21
0.9517746
 31
0.0
  0
LINE
  5
13E
  8
0
  6
CONTINUOUS
 62
     3
 10
0.3851976
 20
0.9517746
 30
0.0
 11
0.3855065
 21
0.9618353
 31
0.0
  0
LINE
  5
13F
  8
0
  6
CONTINUOUS
 62
     3
 10
0.3855065
 20
0.9618353
 30
0.0
 11
0.3855408
 21
0.9719008
 31
0.0
  0
LINE
  5
140
  8
0
  6
CONTINUOUS
 62
     3
 10
0.3855408
 20
0.9719008
 30
0.0
 11
0.3853183
 21
0.9819639
 31
0.0
  0
LINE
  5
141
  8
0
  6
CONTINUOUS
 62
     3
 10
0.3853183
 20
0.9819639
 30
0.0
 11
0.3848538
 21
0.9920188
 31
0.0
  0
LINE
  5
142
  8
0
  6
CONTINUOUS
 62
     3
 10
0.3848538
 20
0.9920188
 30
0.0
 11
0.38416
 21
1.0020604
 31
0.0
  0
LINE
  5
143
  8
0
  6
CONTINUOUS
 62
     3
 10
0.38416
 20
1.0020604
 30
0.0
 11
0.3832481
 21
1.0120846
 31
0.0
  0
LINE
  5
144
  8
0
  6
CONTINUOUS
 62
     3
 10
0.3832481
 20
1.0120846
 30
0.0
 11
0.3821276
 21
1.0220877
 31
0.0
  0
LINE
  5
145
  8
0
  6
CONTINUOUS
 62
     3
 10
0.3821276
 20
1.0220877
 30
0.0
 11
0.3808072
 21
1.0320664
 31
0.0
  0
LINE
  5
146
  8
0
  6
CONTINUOUS
 62
     3
 10
0.3808072
 20
1.0320664
 30
0.0
 11
0.2985539
 21
1.0587921
 31
0.0
  0
LINE
  5
147
  8
0
  6
CONTINUOUS
 62
     3
 10
0.2985539
 20
1.0587921
 30
0.0
 11
0.2916204
 21
1.0514953
 31
0.0
  0
LINE
  5
148
  8
0
  6
CONTINUOUS
 62
     3
 10
0.2916204
 20
1.0514953
 30
0.0
 11
0.2848342
 21
1.0440612
 31
0.0
  0
LINE
  5
149
  8
0
  6
CONTINUOUS
 62
     3
 10
0.2848342
 20
1.0440612
 30
0.0
 11
0.2782043
 21
1.0364875
 31
0.0
  0
LINE
  5
14A
  8
0
  6
CONTINUOUS
 62
     3
 10
0.2782043
 20
1.0364875
 30
0.0
 11
0.2717408
 21
1.0287714
 31
0.0
  0
LINE
  5
14B
  8
0
  6
CONTINUOUS
 62
     3
 10
0.2717408
 20
1.0287714
 30
0.0
 11
0.2654549
 21
1.0209099
 31
0.0
  0
LINE
  5
14C
  8
0
  6
CONTINUOUS
 62
     3
 10
0.2654549
 20
1.0209099
 30
0.0
 11
0.2593599
 21
1.0128995
 31
0.0
  0
LINE
  5
14D
  8
0
  6
CONTINUOUS
 62
     3
 10
0.2593599
 20
1.0128995
 30
0.0
 11
0.2534713
 21
1.0047362
 31
0.0
  0
LINE
  5
14E
  8
0
  6
CONTINUOUS
 62
     3
 10
0.2534713
 20
1.0047362
 30
0.0
 11
0.2478077
 21
0.9964153
 31
0.0
  0
LINE
  5
14F
  8
0
  6
CONTINUOUS
 62
     3
 10
0.2478077
 20
0.9964153
 30
0.0
 11
0.2423918
 21
0.9879311
 31
0.0
  0
LINE
  5
150
  8
0
  6
CONTINUOUS
 62
     3
 10
0.2423918
 20
0.9879311
 30
0.0
 11
0.2372531
 21
0.9792764
 31
0.0
  0
LINE
  5
151
  8
0
  6
CONTINUOUS
 62
     3
 10
0.2372531
 20
0.9792764
 30
0.0
 11
0.2324309
 21
0.9704416
 31
0.0
  0
LINE
  5
152
  8
0
  6
CONTINUOUS
 62
     3
 10
0.2324309
 20
0.9704416
 30
0.0
 11
0.2279834
 21
0.9614126
 31
0.0
  0
LINE
  5
153
  8
0
  6
CONTINUOUS
 62
     3
 10
0.2279834
 20
0.9614126
 30
0.0
 11
0.22401
 21
0.9521658
 31
0.0
  0
LINE
  5
154
  8
0
  6
CONTINUOUS
 62
     3
 10
0.22401
 20
0.9521658
 30
0.0
 11
0.2207862
 21
0.9426364
 31
0.0
  0
LINE
  5
155
  8
0
  6
CONTINUOUS
 62
     3
 10
0.2207862
 20
0.9426364
 30
0.0
 11
0.2167101
 21
0.9136026
 31
0.0
  0
LINE
  5
156
  8
0
  6
CONTINUOUS
 62
     3
 10
0.2167101
 20
0.9136026
 30
0.0
 11
0.2092149
 21
0.8913007
 31
0.0
  0
LINE
  5
157
  8
0
  6
CONTINUOUS
 62
     3
 10
0.2092149
 20
0.8913007
 30
0.0
 11
0.2000407
 21
0.8758324
 31
0.0
  0
LINE
  5
158
  8
0
  6
CONTINUOUS
 62
     3
 10
0.2000407
 20
0.8758324
 30
0.0
 11
0.1902141
 21
0.8672854
 31
0.0
  0
LINE
  5
159
  8
0
  6
CONTINUOUS
 62
     3
 10
0.1902141
 20
0.8672854
 30
0.0
 11
0.180762
 21
0.8656288
 31
0.0
  0
LINE
  5
15A
  8
0
  6
CONTINUOUS
 62
     3
 10
0.180762
 20
0.8656288
 30
0.0
 11
0.0955791
 21
0.8791204
 31
0.0
  0
LINE
  5
15B
  8
0
  6
CONTINUOUS
 62
     3
 10
0.0955791
 20
0.8791204
 30
0.0
 11
0.0871016
 21
0.8836169
 31
0.0
  0
LINE
  5
15C
  8
0
  6
CONTINUOUS
 62
     3
 10
0.0871016
 20
0.8836169
 30
0.0
 11
0.080397
 21
0.8947821
 31
0.0
  0
LINE
  5
15D
  8
0
  6
CONTINUOUS
 62
     3
 10
0.080397
 20
0.8947821
 30
0.0
 11
0.0764519
 21
0.9123283
 31
0.0
  0
LINE
  5
15E
  8
0
  6
CONTINUOUS
 62
     3
 10
0.0764519
 20
0.9123283
 30
0.0
 11
0.0762152
 21
0.9358548
 31
0.0
  0
LINE
  5
15F
  8
0
  6
CONTINUOUS
 62
     3
 10
0.0762152
 20
0.9358548
 30
0.0
 11
0.0813105
 21
0.9647271
 31
0.0
  0
LINE
  5
160
  8
0
  6
CONTINUOUS
 62
     3
 10
0.0813105
 20
0.9647271
 30
0.0
 11
0.0811892
 21
0.9747864
 31
0.0
  0
LINE
  5
161
  8
0
  6
CONTINUOUS
 62
     3
 10
0.0811892
 20
0.9747864
 30
0.0
 11
0.0802677
 21
0.9848085
 31
0.0
  0
LINE
  5
162
  8
0
  6
CONTINUOUS
 62
     3
 10
0.0802677
 20
0.9848085
 30
0.0
 11
0.078828
 21
0.9947699
 31
0.0
  0
LINE
  5
163
  8
0
  6
CONTINUOUS
 62
     3
 10
0.078828
 20
0.9947699
 30
0.0
 11
0.076972
 21
1.0046625
 31
0.0
  0
LINE
  5
164
  8
0
  6
CONTINUOUS
 62
     3
 10
0.076972
 20
1.0046625
 30
0.0
 11
0.0747592
 21
1.0144815
 31
0.0
  0
LINE
  5
165
  8
0
  6
CONTINUOUS
 62
     3
 10
0.0747592
 20
1.0144815
 30
0.0
 11
0.0722302
 21
1.0242241
 31
0.0
  0
LINE
  5
166
  8
0
  6
CONTINUOUS
 62
     3
 10
0.0722302
 20
1.0242241
 30
0.0
 11
0.069415
 21
1.0338878
 31
0.0
  0
LINE
  5
167
  8
0
  6
CONTINUOUS
 62
     3
 10
0.069415
 20
1.0338878
 30
0.0
 11
0.0663372
 21
1.0434713
 31
0.0
  0
LINE
  5
168
  8
0
  6
CONTINUOUS
 62
     3
 10
0.0663372
 20
1.0434713
 30
0.0
 11
0.0630159
 21
1.0529731
 31
0.0
  0
LINE
  5
169
  8
0
  6
CONTINUOUS
 62
     3
 10
0.0630159
 20
1.0529731
 30
0.0
 11
0.059467
 21
1.0623923
 31
0.0
  0
LINE
  5
16A
  8
0
  6
CONTINUOUS
 62
     3
 10
0.059467
 20
1.0623923
 30
0.0
 11
0.0557042
 21
1.0717281
 31
0.0
  0
LINE
  5
16B
  8
0
  6
CONTINUOUS
 62
     3
 10
0.0557042
 20
1.0717281
 30
0.0
 11
0.0517392
 21
1.0809799
 31
0.0
  0
LINE
  5
16C
  8
0
  6
CONTINUOUS
 62
     3
 10
0.0517392
 20
1.0809799
 30
0.0
 11
0.0475824
 21
1.0901471
 31
0.0
  0
LINE
  5
16D
  8
0
  6
CONTINUOUS
 62
     3
 10
0.0475824
 20
1.0901471
 30
0.0
 11
0.0432431
 21
1.0992294
 31
0.0
  0
LINE
  5
16E
  8
0
  6
CONTINUOUS
 62
     3
 10
0.0432431
 20
1.0992294
 30
0.0
 11
-0.0432431
 21
1.0992294
 31
0.0
  0
LINE
  5
16F
  8
0
  6
CONTINUOUS
 62
     3
 10
-0.0432431
 20
1.0992294
 30
0.0
 11
-0.0475824
 21
1.0901471
 31
0.0
  0
LINE
  5
170
  8
0
  6
CONTINUOUS
 62
     3
 10
-0.0475824
 20
1.0901471
 30
0.0
 11
-0.0517392
 21
1.0809799
 31
0.0
  0
LINE
  5
171
  8
0
  6
CONTINUOUS
 62
     3
 10
-0.0517392
 20
1.0809799
 30
0.0
 11
-0.0557042
 21
1.0717281
 31
0.0
  0
LINE
  5
172
  8
0
  6
CONTINUOUS
 62
     3
 10
-0.0557042
 20
1.0717281
 30
0.0
 11
-0.059467
 21
1.0623923
 31
0.0
  0
LINE
  5
173
  8
0
  6
CONTINUOUS
 62
     3
 10
-0.059467
 20
1.0623923
 30
0.0
 11
-0.0630159
 21
1.0529731
 31
0.0
  0
LINE
  5
174
  8
0
  6
CONTINUOUS
 62
     3
 10
-0.0630159
 20
1.0529731
 30
0.0
 11
-0.0663372
 21
1.0434713
 31
0.0
  0
LINE
  5
175
  8
0
  6
CONTINUOUS
 62
     3
 10
-0.0663372
 20
1.0434713
 30
0.0
 11
-0.069415
 21
1.0338878
 31
0.0
  0
LINE
  5
176
  8
0
  6
CONTINUOUS
 62
     3
 10
-0.069415
 20
1.0338878
 30
0.0
 11
-0.0722302
 21
1.0242241
 31
0.0
  0
LINE
  5
177
  8
0
  6
CONTINUOUS
 62
     3
 10
-0.0722302
 20
1.0242241
 30
0.0
 11
-0.0747592
 21
1.0144815
 31
0.0
  0
LINE
  5
178
  8
0
  6
CONTINUOUS
 62
     3
 10
-0.0747592
 20
1.0144815
 30
0.0
 11
-0.076972
 21
1.0046625
 31
0.0
  0
LINE
  5
179
  8
0
  6
CONTINUOUS
 62
     3
 10
-0.076972
 20
1.0046625
 30
0.0
 11
-0.078828
 21
0.9947699
 31
0.0
  0
LINE
  5
17A
  8
0
  6
CONTINUOUS
 62
     3
 10
-0.078828
 20
0.9947699
 30
0.0
 11
-0.0802677
 21
0.9848085
 31
0.0
  0
LINE
  5
17B
  8
0
  6
CONTINUOUS
 62
     3
 10
-0.0802677
 20
0.9848085
 30
0.0
 11
-0.0811892
 21
0.9747864
 31
0.0
  0
LINE
  5
17C
  8
0
  6
CONTINUOUS
 62
     3
 10
-0.0811892
 20
0.9747864
 30
0.0
 11
-0.0813105
 21
0.9647271
 31
0.0
  0
LINE
  5
17D
  8
0
  6
CONTINUOUS
 62
     3
 10
-0.0813105
 20
0.9647271
 30
0.0
 11
-0.0762152
 21
0.9358548
 31
0.0
  0
LINE
  5
17E
  8
0
  6
CONTINUOUS
 62
     3
 10
-0.0762152
 20
0.9358548
 30
0.0
 11
-0.0764519
 21
0.9123283
 31
0.0
  0
LINE
  5
17F
  8
0
  6
CONTINUOUS
 62
     3
 10
-0.0764519
 20
0.9123283
 30
0.0
 11
-0.080397
 21
0.8947821
 31
0.0
  0
LINE
  5
180
  8
0
  6
CONTINUOUS
 62
     3
 10
-0.080397
 20
0.8947821
 30
0.0
 11
-0.0871016
 21
0.8836169
 31
0.0
  0
LINE
  5
181
  8
0
  6
CONTINUOUS
 62
     3
 10
-0.0871016
 20
0.8836169
 30
0.0
 11
-0.0955791
 21
0.8791204
 31
0.0
  0
LINE
  5
182
  8
0
  6
CONTINUOUS
 62
     3
 10
-0.0955791
 20
0.8791204
 30
0.0
 11
-0.180762
 21
0.8656288
 31
0.0
  0
LINE
  5
183
  8
0
  6
CONTINUOUS
 62
     3
 10
-0.180762
 20
0.8656288
 30
0.0
 11
-0.1902141
 21
0.8672854
 31
0.0
  0
LINE
  5
184
  8
0
  6
CONTINUOUS
 62
     3
 10
-0.1902141
 20
0.8672854
 30
0.0
 11
-0.2000407
 21
0.8758324
 31
0.0
  0
LINE
  5
185
  8
0
  6
CONTINUOUS
 62
     3
 10
-0.2000407
 20
0.8758324
 30
0.0
 11
-0.2092149
 21
0.8913007
 31
0.0
  0
LINE
  5
186
  8
0
  6
CONTINUOUS
 62
     3
 10
-0.2092149
 20
0.8913007
 30
0.0
 11
-0.2167101
 21
0.9136026
 31
0.0
  0
LINE
  5
187
  8
0
  6
CONTINUOUS
 62
     3
 10
-0.2167101
 20
0.9136026
 30
0.0
 11
-0.2207862
 21
0.9426364
 31
0.0
  0
LINE
  5
188
  8
0
  6
CONTINUOUS
 62
     3
 10
-0.2207862
 20
0.9426364
 30
0.0
 11
-0.22401
 21
0.9521658
 31
0.0
  0
LINE
  5
189
  8
0
  6
CONTINUOUS
 62
     3
 10
-0.22401
 20
0.9521658
 30
0.0
 11
-0.2279834
 21
0.9614126
 31
0.0
  0
LINE
  5
18A
  8
0
  6
CONTINUOUS
 62
     3
 10
-0.2279834
 20
0.9614126
 30
0.0
 11
-0.2324309
 21
0.9704416
 31
0.0
  0
LINE
  5
18B
  8
0
  6
CONTINUOUS
 62
     3
 10
-0.2324309
 20
0.9704416
 30
0.0
 11
-0.2372531
 21
0.9792764
 31
0.0
  0
LINE
  5
18C
  8
0
  6
CONTINUOUS
 62
     3
 10
-0.2372531
 20
0.9792764
 30
0.0
 11
-0.2423918
 21
0.9879311
 31
0.0
  0
LINE
  5
18D
  8
0
  6
CONTINUOUS
 62
     3
 10
-0.2423918
 20
0.9879311
 30
0.0
 11
-0.2478077
 21
0.9964153
 31
0.0
  0
LINE
  5
18E
  8
0
  6
CONTINUOUS
 62
     3
 10
-0.2478077
 20
0.9964153
 30
0.0
 11
-0.2534713
 21
1.0047362
 31
0.0
  0
LINE
  5
18F
  8
0
  6
CONTINUOUS
 62
     3
 10
-0.2534713
 20
1.0047362
 30
0.0
 11
-0.2593599
 21
1.0128995
 31
0.0
  0
LINE
  5
190
  8
0
  6
CONTINUOUS
 62
     3
 10
-0.2593599
 20
1.0128995
 30
0.0
 11
-0.2654549
 21
1.0209099
 31
0.0
  0
LINE
  5
191
  8
0
  6
CONTINUOUS
 62
     3
 10
-0.2654549
 20
1.0209099
 30
0.0
 11
-0.2717408
 21
1.0287714
 31
0.0
  0
LINE
  5
192
  8
0
  6
CONTINUOUS
 62
     3
 10
-0.2717408
 20
1.0287714
 30
0.0
 11
-0.2782043
 21
1.0364875
 31
0.0
  0
LINE
  5
193
  8
0
  6
CONTINUOUS
 62
     3
 10
-0.2782043
 20
1.0364875
 30
0.0
 11
-0.2848342
 21
1.0440612
 31
0.0
  0
LINE
  5
194
  8
0
  6
CONTINUOUS
 62
     3
 10
-0.2848342
 20
1.0440612
 30
0.0
 11
-0.2916204
 21
1.0514953
 31
0.0
  0
LINE
  5
195
  8
0
  6
CONTINUOUS
 62
     3
 10
-0.2916204
 20
1.0514953
 30
0.0
 11
-0.2985539
 21
1.0587921
 31
0.0
  0
LINE
  5
196
  8
0
  6
CONTINUOUS
 62
     3
 10
-0.2985539
 20
1.0587921
 30
0.0
 11
-0.3808072
 21
1.0320664
 31
0.0
  0
LINE
  5
197
  8
0
  6
CONTINUOUS
 62
     3
 10
-0.3808072
 20
1.0320664
 30
0.0
 11
-0.3821276
 21
1.0220877
 31
0.0
  0
LINE
  5
198
  8
0
  6
CONTINUOUS
 62
     3
 10
-0.3821276
 20
1.0220877
 30
0.0
 11
-0.3832481
 21
1.0120846
 31
0.0
  0
LINE
  5
199
  8
0
  6
CONTINUOUS
 62
     3
 10
-0.3832481
 20
1.0120846
 30
0.0
 11
-0.38416
 21
1.0020604
 31
0.0
  0
LINE
  5
19A
  8
0
  6
CONTINUOUS
 62
     3
 10
-0.38416
 20
1.0020604
 30
0.0
 11
-0.3848538
 21
0.9920188
 31
0.0
  0
LINE
  5
19B
  8
0
  6
CONTINUOUS
 62
     3
 10
-0.3848538
 20
0.9920188
 30
0.0
 11
-0.3853183
 21
0.9819639
 31
0.0
  0
LINE
  5
19C
  8
0
  6
CONTINUOUS
 62
     3
 10
-0.3853183
 20
0.9819639
 30
0.0
 11
-0.3855408
 21
0.9719008
 31
0.0
  0
LINE
  5
19D
  8
0
  6
CONTINUOUS
 62
     3
 10
-0.3855408
 20
0.9719008
 30
0.0
 11
-0.3855065
 21
0.9618353
 31
0.0
  0
LINE
  5
19E
  8
0
  6
CONTINUOUS
 62
     3
 10
-0.3855065
 20
0.9618353
 30
0.0
 11
-0.3851976
 21
0.9517746
 31
0.0
  0
LINE
  5
19F
  8
0
  6
CONTINUOUS
 62
     3
 10
-0.3851976
 20
0.9517746
 30
0.0
 11
-0.3845923
 21
0.9417274
 31
0.0
  0
LINE
  5
1A0
  8
0
  6
CONTINUOUS
 62
     3
 10
-0.3845923
 20
0.9417274
 30
0.0
 11
-0.3836625
 21
0.9317051
 31
0.0
  0
LINE
  5
1A1
  8
0
  6
CONTINUOUS
 62
     3
 10
-0.3836625
 20
0.9317051
 30
0.0
 11
-0.3823707
 21
0.9217232
 31
0.0
  0
LINE
  5
1A2
  8
0
  6
CONTINUOUS
 62
     3
 10
-0.3823707
 20
0.9217232
 30
0.0
 11
-0.3806617
 21
0.9118044
 31
0.0
  0
LINE
  5
1A3
  8
0
  6
CONTINUOUS
 62
     3
 10
-0.3806617
 20
0.9118044
 30
0.0
 11
-0.3784411
 21
0.9019881
 31
0.0
  0
LINE
  5
1A4
  8
0
  6
CONTINUOUS
 62
     3
 10
-0.3784411
 20
0.9019881
 30
0.0
 11
-0.3754479
 21
0.8923837
 31
0.0
  0
LINE
  5
1A5
  8
0
  6
CONTINUOUS
 62
     3
 10
-0.3754479
 20
0.8923837
 30
0.0
 11
-0.36168
 21
0.866499
 31
0.0
  0
LINE
  5
1A6
  8
0
  6
CONTINUOUS
 62
     3
 10
-0.36168
 20
0.866499
 30
0.0
 11
-0.354635
 21
0.8440509
 31
0.0
  0
LINE
  5
1A7
  8
0
  6
CONTINUOUS
 62
     3
 10
-0.354635
 20
0.8440509
 30
0.0
 11
-0.352965
 21
0.8261443
 31
0.0
  0
LINE
  5
1A8
  8
0
  6
CONTINUOUS
 62
     3
 10
-0.352965
 20
0.8261443
 30
0.0
 11
-0.3558911
 21
0.8134537
 31
0.0
  0
LINE
  5
1A9
  8
0
  6
CONTINUOUS
 62
     3
 10
-0.3558911
 20
0.8134537
 30
0.0
 11
-0.3625643
 21
0.8065576
 31
0.0
  0
LINE
  5
1AA
  8
0
  6
CONTINUOUS
 62
     3
 10
-0.3625643
 20
0.8065576
 30
0.0
 11
-0.4394089
 21
0.7674034
 31
0.0
  0
LINE
  5
1AB
  8
0
  6
CONTINUOUS
 62
     3
 10
-0.4394089
 20
0.7674034
 30
0.0
 11
-0.4489103
 21
0.7660581
 31
0.0
  0
LINE
  5
1AC
  8
0
  6
CONTINUOUS
 62
     3
 10
-0.4489103
 20
0.7660581
 30
0.0
 11
-0.4608971
 21
0.7711501
 31
0.0
  0
LINE
  5
1AD
  8
0
  6
CONTINUOUS
 62
     3
 10
-0.4608971
 20
0.7711501
 30
0.0
 11
-0.4744023
 21
0.7830264
 31
0.0
  0
LINE
  5
1AE
  8
0
  6
CONTINUOUS
 62
     3
 10
-0.4744023
 20
0.7830264
 30
0.0
 11
-0.4884222
 21
0.8019206
 31
0.0
  0
LINE
  5
1AF
  8
0
  6
CONTINUOUS
 62
     3
 10
-0.4884222
 20
0.8019206
 30
0.0
 11
-0.5012708
 21
0.8282737
 31
0.0
  0
LINE
  5
1B0
  8
0
  6
CONTINUOUS
 62
     3
 10
-0.5012708
 20
0.8282737
 30
0.0
 11
-0.5072816
 21
0.8363406
 31
0.0
  0
LINE
  5
1B1
  8
0
  6
CONTINUOUS
 62
     3
 10
-0.5072816
 20
0.8363406
 30
0.0
 11
-0.5139179
 21
0.843907
 31
0.0
  0
LINE
  5
1B2
  8
0
  6
CONTINUOUS
 62
     3
 10
-0.5139179
 20
0.843907
 30
0.0
 11
-0.5209379
 21
0.8511197
 31
0.0
  0
LINE
  5
1B3
  8
0
  6
CONTINUOUS
 62
     3
 10
-0.5209379
 20
0.8511197
 30
0.0
 11
-0.5282541
 21
0.858032
 31
0.0
  0
LINE
  5
1B4
  8
0
  6
CONTINUOUS
 62
     3
 10
-0.5282541
 20
0.858032
 30
0.0
 11
-0.5358158
 21
0.8646752
 31
0.0
  0
LINE
  5
1B5
  8
0
  6
CONTINUOUS
 62
     3
 10
-0.5358158
 20
0.8646752
 30
0.0
 11
-0.5435884
 21
0.8710705
 31
0.0
  0
LINE
  5
1B6
  8
0
  6
CONTINUOUS
 62
     3
 10
-0.5435884
 20
0.8710705
 30
0.0
 11
-0.5515461
 21
0.877234
 31
0.0
  0
LINE
  5
1B7
  8
0
  6
CONTINUOUS
 62
     3
 10
-0.5515461
 20
0.877234
 30
0.0
 11
-0.5596691
 21
0.883178
 31
0.0
  0
LINE
  5
1B8
  8
0
  6
CONTINUOUS
 62
     3
 10
-0.5596691
 20
0.883178
 30
0.0
 11
-0.5679411
 21
0.8889129
 31
0.0
  0
LINE
  5
1B9
  8
0
  6
CONTINUOUS
 62
     3
 10
-0.5679411
 20
0.8889129
 30
0.0
 11
-0.5763487
 21
0.8944472
 31
0.0
  0
LINE
  5
1BA
  8
0
  6
CONTINUOUS
 62
     3
 10
-0.5763487
 20
0.8944472
 30
0.0
 11
-0.5848803
 21
0.8997883
 31
0.0
  0
LINE
  5
1BB
  8
0
  6
CONTINUOUS
 62
     3
 10
-0.5848803
 20
0.8997883
 30
0.0
 11
-0.5935261
 21
0.9049426
 31
0.0
  0
LINE
  5
1BC
  8
0
  6
CONTINUOUS
 62
     3
 10
-0.5935261
 20
0.9049426
 30
0.0
 11
-0.6022774
 21
0.9099158
 31
0.0
  0
LINE
  5
1BD
  8
0
  6
CONTINUOUS
 62
     3
 10
-0.6022774
 20
0.9099158
 30
0.0
 11
-0.6111264
 21
0.9147129
 31
0.0
  0
LINE
  5
1BE
  8
0
  6
CONTINUOUS
 62
     3
 10
-0.6111264
 20
0.9147129
 30
0.0
 11
-0.6810952
 21
0.8638776
 31
0.0
  0
LINE
  5
1BF
  8
0
  6
CONTINUOUS
 62
     3
 10
-0.6810952
 20
0.8638776
 30
0.0
 11
-0.6792674
 21
0.8539793
 31
0.0
  0
LINE
  5
1C0
  8
0
  6
CONTINUOUS
 62
     3
 10
-0.6792674
 20
0.8539793
 30
0.0
 11
-0.6772419
 21
0.8441195
 31
0.0
  0
LINE
  5
1C1
  8
0
  6
CONTINUOUS
 62
     3
 10
-0.6772419
 20
0.8441195
 30
0.0
 11
-0.6750116
 21
0.8343041
 31
0.0
  0
LINE
  5
1C2
  8
0
  6
CONTINUOUS
 62
     3
 10
-0.6750116
 20
0.8343041
 30
0.0
 11
-0.6725683
 21
0.8245395
 31
0.0
  0
LINE
  5
1C3
  8
0
  6
CONTINUOUS
 62
     3
 10
-0.6725683
 20
0.8245395
 30
0.0
 11
-0.669903
 21
0.8148333
 31
0.0
  0
LINE
  5
1C4
  8
0
  6
CONTINUOUS
 62
     3
 10
-0.669903
 20
0.8148333
 30
0.0
 11
-0.667005
 21
0.8051939
 31
0.0
  0
LINE
  5
1C5
  8
0
  6
CONTINUOUS
 62
     3
 10
-0.667005
 20
0.8051939
 30
0.0
 11
-0.6638619
 21
0.7956317
 31
0.0
  0
LINE
  5
1C6
  8
0
  6
CONTINUOUS
 62
     3
 10
-0.6638619
 20
0.7956317
 30
0.0
 11
-0.6604592
 21
0.7861588
 31
0.0
  0
LINE
  5
1C7
  8
0
  6
CONTINUOUS
 62
     3
 10
-0.6604592
 20
0.7861588
 30
0.0
 11
-0.6567788
 21
0.7767905
 31
0.0
  0
LINE
  5
1C8
  8
0
  6
CONTINUOUS
 62
     3
 10
-0.6567788
 20
0.7767905
 30
0.0
 11
-0.6527974
 21
0.767546
 31
0.0
  0
LINE
  5
1C9
  8
0
  6
CONTINUOUS
 62
     3
 10
-0.6527974
 20
0.767546
 30
0.0
 11
-0.6484843
 21
0.7584518
 31
0.0
  0
LINE
  5
1CA
  8
0
  6
CONTINUOUS
 62
     3
 10
-0.6484843
 20
0.7584518
 30
0.0
 11
-0.6437938
 21
0.7495466
 31
0.0
  0
LINE
  5
1CB
  8
0
  6
CONTINUOUS
 62
     3
 10
-0.6437938
 20
0.7495466
 30
0.0
 11
-0.6386485
 21
0.7408969
 31
0.0
  0
LINE
  5
1CC
  8
0
  6
CONTINUOUS
 62
     3
 10
-0.6386485
 20
0.7408969
 30
0.0
 11
-0.6328339
 21
0.7326876
 31
0.0
  0
LINE
  5
1CD
  8
0
  6
CONTINUOUS
 62
     3
 10
-0.6328339
 20
0.7326876
 30
0.0
 11
-0.611741
 21
0.7123242
 31
0.0
  0
LINE
  5
1CE
  8
0
  6
CONTINUOUS
 62
     3
 10
-0.611741
 20
0.7123242
 30
0.0
 11
-0.598104
 21
0.6931518
 31
0.0
  0
LINE
  5
1CF
  8
0
  6
CONTINUOUS
 62
     3
 10
-0.598104
 20
0.6931518
 30
0.0
 11
-0.5909823
 21
0.6766377
 31
0.0
  0
LINE
  5
1D0
  8
0
  6
CONTINUOUS
 62
     3
 10
-0.5909823
 20
0.6766377
 30
0.0
 11
-0.5898436
 21
0.663664
 31
0.0
  0
LINE
  5
1D1
  8
0
  6
CONTINUOUS
 62
     3
 10
-0.5898436
 20
0.663664
 30
0.0
 11
-0.5940592
 21
0.6550434
 31
0.0
  0
LINE
  5
1D2
  8
0
  6
CONTINUOUS
 62
     3
 10
-0.5940592
 20
0.6550434
 30
0.0
 11
-0.6550434
 21
0.5940592
 31
0.0
  0
LINE
  5
1D3
  8
0
  6
CONTINUOUS
 62
     3
 10
-0.6550434
 20
0.5940592
 30
0.0
 11
-0.663664
 21
0.5898436
 31
0.0
  0
LINE
  5
1D4
  8
0
  6
CONTINUOUS
 62
     3
 10
-0.663664
 20
0.5898436
 30
0.0
 11
-0.6766377
 21
0.5909823
 31
0.0
  0
LINE
  5
1D5
  8
0
  6
CONTINUOUS
 62
     3
 10
-0.6766377
 20
0.5909823
 30
0.0
 11
-0.6931518
 21
0.598104
 31
0.0
  0
LINE
  5
1D6
  8
0
  6
CONTINUOUS
 62
     3
 10
-0.6931518
 20
0.598104
 30
0.0
 11
-0.7123242
 21
0.611741
 31
0.0
  0
LINE
  5
1D7
  8
0
  6
CONTINUOUS
 62
     3
 10
-0.7123242
 20
0.611741
 30
0.0
 11
-0.7326876
 21
0.6328339
 31
0.0
  0
LINE
  5
1D8
  8
0
  6
CONTINUOUS
 62
     3
 10
-0.7326876
 20
0.6328339
 30
0.0
 11
-0.7408969
 21
0.6386485
 31
0.0
  0
LINE
  5
1D9
  8
0
  6
CONTINUOUS
 62
     3
 10
-0.7408969
 20
0.6386485
 30
0.0
 11
-0.7495466
 21
0.6437938
 31
0.0
  0
LINE
  5
1DA
  8
0
  6
CONTINUOUS
 62
     3
 10
-0.7495466
 20
0.6437938
 30
0.0
 11
-0.7584518
 21
0.6484843
 31
0.0
  0
LINE
  5
1DB
  8
0
  6
CONTINUOUS
 62
     3
 10
-0.7584518
 20
0.6484843
 30
0.0
 11
-0.767546
 21
0.6527974
 31
0.0
  0
LINE
  5
1DC
  8
0
  6
CONTINUOUS
 62
     3
 10
-0.767546
 20
0.6527974
 30
0.0
 11
-0.7767905
 21
0.6567788
 31
0.0
  0
LINE
  5
1DD
  8
0
  6
CONTINUOUS
 62
     3
 10
-0.7767905
 20
0.6567788
 30
0.0
 11
-0.7861588
 21
0.6604592
 31
0.0
  0
LINE
  5
1DE
  8
0
  6
CONTINUOUS
 62
     3
 10
-0.7861588
 20
0.6604592
 30
0.0
 11
-0.7956317
 21
0.6638619
 31
0.0
  0
LINE
  5
1DF
  8
0
  6
CONTINUOUS
 62
     3
 10
-0.7956317
 20
0.6638619
 30
0.0
 11
-0.8051939
 21
0.667005
 31
0.0
  0
LINE
  5
1E0
  8
0
  6
CONTINUOUS
 62
     3
 10
-0.8051939
 20
0.667005
 30
0.0
 11
-0.8148333
 21
0.669903
 31
0.0
  0
LINE
  5
1E1
  8
0
  6
CONTINUOUS
 62
     3
 10
-0.8148333
 20
0.669903
 30
0.0
 11
-0.8245395
 21
0.6725683
 31
0.0
  0
LINE
  5
1E2
  8
0
  6
CONTINUOUS
 62
     3
 10
-0.8245395
 20
0.6725683
 30
0.0
 11
-0.8343041
 21
0.6750116
 31
0.0
  0
LINE
  5
1E3
  8
0
  6
CONTINUOUS
 62
     3
 10
-0.8343041
 20
0.6750116
 30
0.0
 11
-0.8441195
 21
0.6772419
 31
0.0
  0
LINE
  5
1E4
  8
0
  6
CONTINUOUS
 62
     3
 10
-0.8441195
 20
0.6772419
 30
0.0
 11
-0.8539793
 21
0.6792674
 31
0.0
  0
LINE
  5
1E5
  8
0
  6
CONTINUOUS
 62
     3
 10
-0.8539793
 20
0.6792674
 30
0.0
 11
-0.8638776
 21
0.6810952
 31
0.0
  0
LINE
  5
1E6
  8
0
  6
CONTINUOUS
 62
     3
 10
-0.8638776
 20
0.6810952
 30
0.0
 11
-0.9147129
 21
0.6111264
 31
0.0
  0
LINE
  5
1E7
  8
0
  6
CONTINUOUS
 62
     3
 10
-0.9147129
 20
0.6111264
 30
0.0
 11
-0.9099158
 21
0.6022774
 31
0.0
  0
LINE
  5
1E8
  8
0
  6
CONTINUOUS
 62
     3
 10
-0.9099158
 20
0.6022774
 30
0.0
 11
-0.9049426
 21
0.5935261
 31
0.0
  0
LINE
  5
1E9
  8
0
  6
CONTINUOUS
 62
     3
 10
-0.9049426
 20
0.5935261
 30
0.0
 11
-0.8997883
 21
0.5848803
 31
0.0
  0
LINE
  5
1EA
  8
0
  6
CONTINUOUS
 62
     3
 10
-0.8997883
 20
0.5848803
 30
0.0
 11
-0.8944472
 21
0.5763487
 31
0.0
  0
LINE
  5
1EB
  8
0
  6
CONTINUOUS
 62
     3
 10
-0.8944472
 20
0.5763487
 30
0.0
 11
-0.8889129
 21
0.5679411
 31
0.0
  0
LINE
  5
1EC
  8
0
  6
CONTINUOUS
 62
     3
 10
-0.8889129
 20
0.5679411
 30
0.0
 11
-0.883178
 21
0.5596691
 31
0.0
  0
LINE
  5
1ED
  8
0
  6
CONTINUOUS
 62
     3
 10
-0.883178
 20
0.5596691
 30
0.0
 11
-0.877234
 21
0.5515461
 31
0.0
  0
LINE
  5
1EE
  8
0
  6
CONTINUOUS
 62
     3
 10
-0.877234
 20
0.5515461
 30
0.0
 11
-0.8710705
 21
0.5435884
 31
0.0
  0
LINE
  5
1EF
  8
0
  6
CONTINUOUS
 62
     3
 10
-0.8710705
 20
0.5435884
 30
0.0
 11
-0.8646752
 21
0.5358158
 31
0.0
  0
LINE
  5
1F0
  8
0
  6
CONTINUOUS
 62
     3
 10
-0.8646752
 20
0.5358158
 30
0.0
 11
-0.858032
 21
0.5282541
 31
0.0
  0
LINE
  5
1F1
  8
0
  6
CONTINUOUS
 62
     3
 10
-0.858032
 20
0.5282541
 30
0.0
 11
-0.8511197
 21
0.5209379
 31
0.0
  0
LINE
  5
1F2
  8
0
  6
CONTINUOUS
 62
     3
 10
-0.8511197
 20
0.5209379
 30
0.0
 11
-0.843907
 21
0.5139179
 31
0.0
  0
LINE
  5
1F3
  8
0
  6
CONTINUOUS
 62
     3
 10
-0.843907
 20
0.5139179
 30
0.0
 11
-0.8363406
 21
0.5072816
 31
0.0
  0
LINE
  5
1F4
  8
0
  6
CONTINUOUS
 62
     3
 10
-0.8363406
 20
0.5072816
 30
0.0
 11
-0.8282737
 21
0.5012708
 31
0.0
  0
LINE
  5
1F5
  8
0
  6
CONTINUOUS
 62
     3
 10
-0.8282737
 20
0.5012708
 30
0.0
 11
-0.8019206
 21
0.4884222
 31
0.0
  0
LINE
  5
1F6
  8
0
  6
CONTINUOUS
 62
     3
 10
-0.8019206
 20
0.4884222
 30
0.0
 11
-0.7830264
 21
0.4744023
 31
0.0
  0
LINE
  5
1F7
  8
0
  6
CONTINUOUS
 62
     3
 10
-0.7830264
 20
0.4744023
 30
0.0
 11
-0.7711501
 21
0.4608971
 31
0.0
  0
LINE
  5
1F8
  8
0
  6
CONTINUOUS
 62
     3
 10
-0.7711501
 20
0.4608971
 30
0.0
 11
-0.7660581
 21
0.4489103
 31
0.0
  0
LINE
  5
1F9
  8
0
  6
CONTINUOUS
 62
     3
 10
-0.7660581
 20
0.4489103
 30
0.0
 11
-0.7674034
 21
0.4394089
 31
0.0
  0
LINE
  5
1FA
  8
0
  6
CONTINUOUS
 62
     3
 10
-0.7674034
 20
0.4394089
 30
0.0
 11
-0.8065576
 21
0.3625643
 31
0.0
  0
LINE
  5
1FB
  8
0
  6
CONTINUOUS
 62
     3
 10
-0.8065576
 20
0.3625643
 30
0.0
 11
-0.8134537
 21
0.3558911
 31
0.0
  0
LINE
  5
1FC
  8
0
  6
CONTINUOUS
 62
     3
 10
-0.8134537
 20
0.3558911
 30
0.0
 11
-0.8261443
 21
0.352965
 31
0.0
  0
LINE
  5
1FD
  8
0
  6
CONTINUOUS
 62
     3
 10
-0.8261443
 20
0.352965
 30
0.0
 11
-0.8440509
 21
0.354635
 31
0.0
  0
LINE
  5
1FE
  8
0
  6
CONTINUOUS
 62
     3
 10
-0.8440509
 20
0.354635
 30
0.0
 11
-0.866499
 21
0.36168
 31
0.0
  0
LINE
  5
1FF
  8
0
  6
CONTINUOUS
 62
     3
 10
-0.866499
 20
0.36168
 30
0.0
 11
-0.8923837
 21
0.3754479
 31
0.0
  0
LINE
  5
200
  8
0
  6
CONTINUOUS
 62
     3
 10
-0.8923837
 20
0.3754479
 30
0.0
 11
-0.9019881
 21
0.3784411
 31
0.0
  0
LINE
  5
201
  8
0
  6
CONTINUOUS
 62
     3
 10
-0.9019881
 20
0.3784411
 30
0.0
 11
-0.9118044
 21
0.3806617
 31
0.0
  0
LINE
  5
202
  8
0
  6
CONTINUOUS
 62
     3
 10
-0.9118044
 20
0.3806617
 30
0.0
 11
-0.9217232
 21
0.3823707
 31
0.0
  0
LINE
  5
203
  8
0
  6
CONTINUOUS
 62
     3
 10
-0.9217232
 20
0.3823707
 30
0.0
 11
-0.9317051
 21
0.3836625
 31
0.0
  0
LINE
  5
204
  8
0
  6
CONTINUOUS
 62
     3
 10
-0.9317051
 20
0.3836625
 30
0.0
 11
-0.9417274
 21
0.3845923
 31
0.0
  0
LINE
  5
205
  8
0
  6
CONTINUOUS
 62
     3
 10
-0.9417274
 20
0.3845923
 30
0.0
 11
-0.9517746
 21
0.3851976
 31
0.0
  0
LINE
  5
206
  8
0
  6
CONTINUOUS
 62
     3
 10
-0.9517746
 20
0.3851976
 30
0.0
 11
-0.9618353
 21
0.3855065
 31
0.0
  0
LINE
  5
207
  8
0
  6
CONTINUOUS
 62
     3
 10
-0.9618353
 20
0.3855065
 30
0.0
 11
-0.9719008
 21
0.3855408
 31
0.0
  0
LINE
  5
208
  8
0
  6
CONTINUOUS
 62
     3
 10
-0.9719008
 20
0.3855408
 30
0.0
 11
-0.9819639
 21
0.3853183
 31
0.0
  0
LINE
  5
209
  8
0
  6
CONTINUOUS
 62
     3
 10
-0.9819639
 20
0.3853183
 30
0.0
 11
-0.9920188
 21
0.3848538
 31
0.0
  0
LINE
  5
20A
  8
0
  6
CONTINUOUS
 62
     3
 10
-0.9920188
 20
0.3848538
 30
0.0
 11
-1.0020604
 21
0.38416
 31
0.0
  0
LINE
  5
20B
  8
0
  6
CONTINUOUS
 62
     3
 10
-1.0020604
 20
0.38416
 30
0.0
 11
-1.0120846
 21
0.3832481
 31
0.0
  0
LINE
  5
20C
  8
0
  6
CONTINUOUS
 62
     3
 10
-1.0120846
 20
0.3832481
 30
0.0
 11
-1.0220877
 21
0.3821276
 31
0.0
  0
LINE
  5
20D
  8
0
  6
CONTINUOUS
 62
     3
 10
-1.0220877
 20
0.3821276
 30
0.0
 11
-1.0320664
 21
0.3808072
 31
0.0
  0
LINE
  5
20E
  8
0
  6
CONTINUOUS
 62
     3
 10
-1.0320664
 20
0.3808072
 30
0.0
 11
-1.0587921
 21
0.2985539
 31
0.0
  0
LINE
  5
20F
  8
0
  6
CONTINUOUS
 62
     3
 10
-1.0587921
 20
0.2985539
 30
0.0
 11
-1.0514953
 21
0.2916204
 31
0.0
  0
LINE
  5
210
  8
0
  6
CONTINUOUS
 62
     3
 10
-1.0514953
 20
0.2916204
 30
0.0
 11
-1.0440612
 21
0.2848342
 31
0.0
  0
LINE
  5
211
  8
0
  6
CONTINUOUS
 62
     3
 10
-1.0440612
 20
0.2848342
 30
0.0
 11
-1.0364875
 21
0.2782043
 31
0.0
  0
LINE
  5
212
  8
0
  6
CONTINUOUS
 62
     3
 10
-1.0364875
 20
0.2782043
 30
0.0
 11
-1.0287714
 21
0.2717408
 31
0.0
  0
LINE
  5
213
  8
0
  6
CONTINUOUS
 62
     3
 10
-1.0287714
 20
0.2717408
 30
0.0
 11
-1.0209099
 21
0.2654549
 31
0.0
  0
LINE
  5
214
  8
0
  6
CONTINUOUS
 62
     3
 10
-1.0209099
 20
0.2654549
 30
0.0
 11
-1.0128995
 21
0.2593599
 31
0.0
  0
LINE
  5
215
  8
0
  6
CONTINUOUS
 62
     3
 10
-1.0128995
 20
0.2593599
 30
0.0
 11
-1.0047362
 21
0.2534713
 31
0.0
  0
LINE
  5
216
  8
0
  6
CONTINUOUS
 62
     3
 10
-1.0047362
 20
0.2534713
 30
0.0
 11
-0.9964153
 21
0.2478077
 31
0.0
  0
LINE
  5
217
  8
0
  6
CONTINUOUS
 62
     3
 10
-0.9964153
 20
0.2478077
 30
0.0
 11
-0.9879311
 21
0.2423918
 31
0.0
  0
LINE
  5
218
  8
0
  6
CONTINUOUS
 62
     3
 10
-0.9879311
 20
0.2423918
 30
0.0
 11
-0.9792764
 21
0.2372531
 31
0.0
  0
LINE
  5
219
  8
0
  6
CONTINUOUS
 62
     3
 10
-0.9792764
 20
0.2372531
 30
0.0
 11
-0.9704416
 21
0.2324309
 31
0.0
  0
LINE
  5
21A
  8
0
  6
CONTINUOUS
 62
     3
 10
-0.9704416
 20
0.2324309
 30
0.0
 11
-0.9614126
 21
0.2279834
 31
0.0
  0
LINE
  5
21B
  8
0
  6
CONTINUOUS
 62
     3
 10
-0.9614126
 20
0.2279834
 30
0.0
 11
-0.9521658
 21
0.22401
 31
0.0
  0
LINE
  5
21C
  8
0
  6
CONTINUOUS
 62
     3
 10
-0.9521658
 20
0.22401
 30
0.0
 11
-0.9426364
 21
0.2207862
 31
0.0
  0
LINE
  5
21D
  8
0
  6
CONTINUOUS
 62
     3
 10
-0.9426364
 20
0.2207862
 30
0.0
 11
-0.9136026
 21
0.2167101
 31
0.0
  0
LINE
  5
21E
  8
0
  6
CONTINUOUS
 62
     3
 10
-0.9136026
 20
0.2167101
 30
0.0
 11
-0.8913007
 21
0.2092149
 31
0.0
  0
LINE
  5
21F
  8
0
  6
CONTINUOUS
 62
     3
 10
-0.8913007
 20
0.2092149
 30
0.0
 11
-0.8758324
 21
0.2000407
 31
0.0
  0
LINE
  5
220
  8
0
  6
CONTINUOUS
 62
     3
 10
-0.8758324
 20
0.2000407
 30
0.0
 11
-0.8672854
 21
0.1902141
 31
0.0
  0
LINE
  5
221
  8
0
  6
CONTINUOUS
 62
     3
 10
-0.8672854
 20
0.1902141
 30
0.0
 11
-0.8656288
 21
0.180762
 31
0.0
  0
LINE
  5
222
  8
0
  6
CONTINUOUS
 62
     3
 10
-0.8656288
 20
0.180762
 30
0.0
 11
-0.8791204
 21
0.0955791
 31
0.0
  0
LINE
  5
223
  8
0
  6
CONTINUOUS
 62
     3
 10
-0.8791204
 20
0.0955791
 30
0.0
 11
-0.8836169
 21
0.0871016
 31
0.0
  0
LINE
  5
224
  8
0
  6
CONTINUOUS
 62
     3
 10
-0.8836169
 20
0.0871016
 30
0.0
 11
-0.8947821
 21
0.080397
 31
0.0
  0
LINE
  5
225
  8
0
  6
CONTINUOUS
 62
     3
 10
-0.8947821
 20
0.080397
 30
0.0
 11
-0.9123283
 21
0.0764519
 31
0.0
  0
LINE
  5
226
  8
0
  6
CONTINUOUS
 62
     3
 10
-0.9123283
 20
0.0764519
 30
0.0
 11
-0.9358548
 21
0.0762152
 31
0.0
  0
LINE
  5
227
  8
0
  6
CONTINUOUS
 62
     3
 10
-0.9358548
 20
0.0762152
 30
0.0
 11
-0.9647271
 21
0.0813105
 31
0.0
  0
LINE
  5
228
  8
0
  6
CONTINUOUS
 62
     3
 10
-0.9647271
 20
0.0813105
 30
0.0
 11
-0.9747864
 21
0.0811892
 31
0.0
  0
LINE
  5
229
  8
0
  6
CONTINUOUS
 62
     3
 10
-0.9747864
 20
0.0811892
 30
0.0
 11
-0.9848085
 21
0.0802677
 31
0.0
  0
LINE
  5
22A
  8
0
  6
CONTINUOUS
 62
     3
 10
-0.9848085
 20
0.0802677
 30
0.0
 11
-0.9947699
 21
0.078828
 31
0.0
  0
LINE
  5
22B
  8
0
  6
CONTINUOUS
 62
     3
 10
-0.9947699
 20
0.078828
 30
0.0
 11
-1.0046625
 21
0.076972
 31
0.0
  0
LINE
  5
22C
  8
0
  6
CONTINUOUS
 62
     3
 10
-1.0046625
 20
0.076972
 30
0.0
 11
-1.0144815
 21
0.0747592
 31
0.0
  0
LINE
  5
22D
  8
0
  6
CONTINUOUS
 62
     3
 10
-1.0144815
 20
0.0747592
 30
0.0
 11
-1.0242241
 21
0.0722302
 31
0.0
  0
LINE
  5
22E
  8
0
  6
CONTINUOUS
 62
     3
 10
-1.0242241
 20
0.0722302
 30
0.0
 11
-1.0338878
 21
0.069415
 31
0.0
  0
LINE
  5
22F
  8
0
  6
CONTINUOUS
 62
     3
 10
-1.0338878
 20
0.069415
 30
0.0
 11
-1.0434713
 21
0.0663372
 31
0.0
  0
LINE
  5
230
  8
0
  6
CONTINUOUS
 62
     3
 10
-1.0434713
 20
0.0663372
 30
0.0
 11
-1.0529731
 21
0.0630159
 31
0.0
  0
LINE
  5
231
  8
0
  6
CONTINUOUS
 62
     3
 10
-1.0529731
 20
0.0630159
 30
0.0
 11
-1.0623923
 21
0.059467
 31
0.0
  0
LINE
  5
232
  8
0
  6
CONTINUOUS
 62
     3
 10
-1.0623923
 20
0.059467
 30
0.0
 11
-1.0717281
 21
0.0557042
 31
0.0
  0
LINE
  5
233
  8
0
  6
CONTINUOUS
 62
     3
 10
-1.0717281
 20
0.0557042
 30
0.0
 11
-1.0809799
 21
0.0517392
 31
0.0
  0
LINE
  5
234
  8
0
  6
CONTINUOUS
 62
     3
 10
-1.0809799
 20
0.0517392
 30
0.0
 11
-1.0901471
 21
0.0475824
 31
0.0
  0
LINE
  5
235
  8
0
  6
CONTINUOUS
 62
     3
 10
-1.0901471
 20
0.0475824
 30
0.0
 11
-1.0992294
 21
0.0432431
 31
0.0
  0
LINE
  5
236
  8
0
  6
CONTINUOUS
 62
     3
 10
-1.0992294
 20
0.0432431
 30
0.0
 11
-1.0992294
 21
-0.0432431
 31
0.0
  0
LINE
  5
237
  8
0
  6
CONTINUOUS
 62
     3
 10
-1.0992294
 20
-0.0432431
 30
0.0
 11
-1.0901471
 21
-0.0475824
 31
0.0
  0
LINE
  5
238
  8
0
  6
CONTINUOUS
 62
     3
 10
-1.0901471
 20
-0.0475824
 30
0.0
 11
-1.0809799
 21
-0.0517392
 31
0.0
  0
LINE
  5
239
  8
0
  6
CONTINUOUS
 62
     3
 10
-1.0809799
 20
-0.0517392
 30
0.0
 11
-1.0717281
 21
-0.0557042
 31
0.0
  0
LINE
  5
23A
  8
0
  6
CONTINUOUS
 62
     3
 10
-1.0717281
 20
-0.0557042
 30
0.0
 11
-1.0623923
 21
-0.059467
 31
0.0
  0
LINE
  5
23B
  8
0
  6
CONTINUOUS
 62
     3
 10
-1.0623923
 20
-0.059467
 30
0.0
 11
-1.0529731
 21
-0.0630159
 31
0.0
  0
LINE
  5
23C
  8
0
  6
CONTINUOUS
 62
     3
 10
-1.0529731
 20
-0.0630159
 30
0.0
 11
-1.0434713
 21
-0.0663372
 31
0.0
  0
LINE
  5
23D
  8
0
  6
CONTINUOUS
 62
     3
 10
-1.0434713
 20
-0.0663372
 30
0.0
 11
-1.0338878
 21
-0.069415
 31
0.0
  0
LINE
  5
23E
  8
0
  6
CONTINUOUS
 62
     3
 10
-1.0338878
 20
-0.069415
 30
0.0
 11
-1.0242241
 21
-0.0722302
 31
0.0
  0
LINE
  5
23F
  8
0
  6
CONTINUOUS
 62
     3
 10
-1.0242241
 20
-0.0722302
 30
0.0
 11
-1.0144815
 21
-0.0747592
 31
0.0
  0
LINE
  5
240
  8
0
  6
CONTINUOUS
 62
     3
 10
-1.0144815
 20
-0.0747592
 30
0.0
 11
-1.0046625
 21
-0.076972
 31
0.0
  0
LINE
  5
241
  8
0
  6
CONTINUOUS
 62
     3
 10
-1.0046625
 20
-0.076972
 30
0.0
 11
-0.9947699
 21
-0.078828
 31
0.0
  0
LINE
  5
242
  8
0
  6
CONTINUOUS
 62
     3
 10
-0.9947699
 20
-0.078828
 30
0.0
 11
-0.9848085
 21
-0.0802677
 31
0.0
  0
LINE
  5
243
  8
0
  6
CONTINUOUS
 62
     3
 10
-0.9848085
 20
-0.0802677
 30
0.0
 11
-0.9747864
 21
-0.0811892
 31
0.0
  0
LINE
  5
244
  8
0
  6
CONTINUOUS
 62
     3
 10
-0.9747864
 20
-0.0811892
 30
0.0
 11
-0.9647271
 21
-0.0813105
 31
0.0
  0
LINE
  5
245
  8
0
  6
CONTINUOUS
 62
     3
 10
-0.9647271
 20
-0.0813105
 30
0.0
 11
-0.9358548
 21
-0.0762152
 31
0.0
  0
LINE
  5
246
  8
0
  6
CONTINUOUS
 62
     3
 10
-0.9358548
 20
-0.0762152
 30
0.0
 11
-0.9123283
 21
-0.0764519
 31
0.0
  0
LINE
  5
247
  8
0
  6
CONTINUOUS
 62
     3
 10
-0.9123283
 20
-0.0764519
 30
0.0
 11
-0.8947821
 21
-0.080397
 31
0.0
  0
LINE
  5
248
  8
0
  6
CONTINUOUS
 62
     3
 10
-0.8947821
 20
-0.080397
 30
0.0
 11
-0.8836169
 21
-0.0871016
 31
0.0
  0
LINE
  5
249
  8
0
  6
CONTINUOUS
 62
     3
 10
-0.8836169
 20
-0.0871016
 30
0.0
 11
-0.8791204
 21
-0.0955791
 31
0.0
  0
LINE
  5
24A
  8
0
  6
CONTINUOUS
 62
     3
 10
-0.8791204
 20
-0.0955791
 30
0.0
 11
-0.8656288
 21
-0.180762
 31
0.0
  0
LINE
  5
24B
  8
0
  6
CONTINUOUS
 62
     3
 10
-0.8656288
 20
-0.180762
 30
0.0
 11
-0.8672854
 21
-0.1902141
 31
0.0
  0
LINE
  5
24C
  8
0
  6
CONTINUOUS
 62
     3
 10
-0.8672854
 20
-0.1902141
 30
0.0
 11
-0.8758324
 21
-0.2000407
 31
0.0
  0
LINE
  5
24D
  8
0
  6
CONTINUOUS
 62
     3
 10
-0.8758324
 20
-0.2000407
 30
0.0
 11
-0.8913007
 21
-0.2092149
 31
0.0
  0
LINE
  5
24E
  8
0
  6
CONTINUOUS
 62
     3
 10
-0.8913007
 20
-0.2092149
 30
0.0
 11
-0.9136026
 21
-0.2167101
 31
0.0
  0
LINE
  5
24F
  8
0
  6
CONTINUOUS
 62
     3
 10
-0.9136026
 20
-0.2167101
 30
0.0
 11
-0.9426364
 21
-0.2207862
 31
0.0
  0
LINE
  5
250
  8
0
  6
CONTINUOUS
 62
     3
 10
-0.9426364
 20
-0.2207862
 30
0.0
 11
-0.9521658
 21
-0.22401
 31
0.0
  0
LINE
  5
251
  8
0
  6
CONTINUOUS
 62
     3
 10
-0.9521658
 20
-0.22401
 30
0.0
 11
-0.9614126
 21
-0.2279834
 31
0.0
  0
LINE
  5
252
  8
0
  6
CONTINUOUS
 62
     3
 10
-0.9614126
 20
-0.2279834
 30
0.0
 11
-0.9704416
 21
-0.2324309
 31
0.0
  0
LINE
  5
253
  8
0
  6
CONTINUOUS
 62
     3
 10
-0.9704416
 20
-0.2324309
 30
0.0
 11
-0.9792764
 21
-0.2372531
 31
0.0
  0
LINE
  5
254
  8
0
  6
CONTINUOUS
 62
     3
 10
-0.9792764
 20
-0.2372531
 30
0.0
 11
-0.9879311
 21
-0.2423918
 31
0.0
  0
LINE
  5
255
  8
0
  6
CONTINUOUS
 62
     3
 10
-0.9879311
 20
-0.2423918
 30
0.0
 11
-0.9964153
 21
-0.2478077
 31
0.0
  0
LINE
  5
256
  8
0
  6
CONTINUOUS
 62
     3
 10
-0.9964153
 20
-0.2478077
 30
0.0
 11
-1.0047362
 21
-0.2534713
 31
0.0
  0
LINE
  5
257
  8
0
  6
CONTINUOUS
 62
     3
 10
-1.0047362
 20
-0.2534713
 30
0.0
 11
-1.0128995
 21
-0.2593599
 31
0.0
  0
LINE
  5
258
  8
0
  6
CONTINUOUS
 62
     3
 10
-1.0128995
 20
-0.2593599
 30
0.0
 11
-1.0209099
 21
-0.2654549
 31
0.0
  0
LINE
  5
259
  8
0
  6
CONTINUOUS
 62
     3
 10
-1.0209099
 20
-0.2654549
 30
0.0
 11
-1.0287714
 21
-0.2717408
 31
0.0
  0
LINE
  5
25A
  8
0
  6
CONTINUOUS
 62
     3
 10
-1.0287714
 20
-0.2717408
 30
0.0
 11
-1.0364875
 21
-0.2782043
 31
0.0
  0
LINE
  5
25B
  8
0
  6
CONTINUOUS
 62
     3
 10
-1.0364875
 20
-0.2782043
 30
0.0
 11
-1.0440612
 21
-0.2848342
 31
0.0
  0
LINE
  5
25C
  8
0
  6
CONTINUOUS
 62
     3
 10
-1.0440612
 20
-0.2848342
 30
0.0
 11
-1.0514953
 21
-0.2916204
 31
0.0
  0
LINE
  5
25D
  8
0
  6
CONTINUOUS
 62
     3
 10
-1.0514953
 20
-0.2916204
 30
0.0
 11
-1.0587921
 21
-0.2985539
 31
0.0
  0
LINE
  5
25E
  8
0
  6
CONTINUOUS
 62
     3
 10
-1.0587921
 20
-0.2985539
 30
0.0
 11
-1.0320664
 21
-0.3808072
 31
0.0
  0
LINE
  5
25F
  8
0
  6
CONTINUOUS
 62
     3
 10
-1.0320664
 20
-0.3808072
 30
0.0
 11
-1.0220877
 21
-0.3821276
 31
0.0
  0
LINE
  5
260
  8
0
  6
CONTINUOUS
 62
     3
 10
-1.0220877
 20
-0.3821276
 30
0.0
 11
-1.0120846
 21
-0.3832481
 31
0.0
  0
LINE
  5
261
  8
0
  6
CONTINUOUS
 62
     3
 10
-1.0120846
 20
-0.3832481
 30
0.0
 11
-1.0020604
 21
-0.38416
 31
0.0
  0
LINE
  5
262
  8
0
  6
CONTINUOUS
 62
     3
 10
-1.0020604
 20
-0.38416
 30
0.0
 11
-0.9920188
 21
-0.3848538
 31
0.0
  0
LINE
  5
263
  8
0
  6
CONTINUOUS
 62
     3
 10
-0.9920188
 20
-0.3848538
 30
0.0
 11
-0.9819639
 21
-0.3853183
 31
0.0
  0
LINE
  5
264
  8
0
  6
CONTINUOUS
 62
     3
 10
-0.9819639
 20
-0.3853183
 30
0.0
 11
-0.9719008
 21
-0.3855408
 31
0.0
  0
LINE
  5
265
  8
0
  6
CONTINUOUS
 62
     3
 10
-0.9719008
 20
-0.3855408
 30
0.0
 11
-0.9618353
 21
-0.3855065
 31
0.0
  0
LINE
  5
266
  8
0
  6
CONTINUOUS
 62
     3
 10
-0.9618353
 20
-0.3855065
 30
0.0
 11
-0.9517746
 21
-0.3851976
 31
0.0
  0
LINE
  5
267
  8
0
  6
CONTINUOUS
 62
     3
 10
-0.9517746
 20
-0.3851976
 30
0.0
 11
-0.9417274
 21
-0.3845923
 31
0.0
  0
LINE
  5
268
  8
0
  6
CONTINUOUS
 62
     3
 10
-0.9417274
 20
-0.3845923
 30
0.0
 11
-0.9317051
 21
-0.3836625
 31
0.0
  0
LINE
  5
269
  8
0
  6
CONTINUOUS
 62
     3
 10
-0.9317051
 20
-0.3836625
 30
0.0
 11
-0.9217232
 21
-0.3823707
 31
0.0
  0
LINE
  5
26A
  8
0
  6
CONTINUOUS
 62
     3
 10
-0.9217232
 20
-0.3823707
 30
0.0
 11
-0.9118044
 21
-0.3806617
 31
0.0
  0
LINE
  5
26B
  8
0
  6
CONTINUOUS
 62
     3
 10
-0.9118044
 20
-0.3806617
 30
0.0
 11
-0.9019881
 21
-0.3784411
 31
0.0
  0
LINE
  5
26C
  8
0
  6
CONTINUOUS
 62
     3
 10
-0.9019881
 20
-0.3784411
 30
0.0
 11
-0.8923837
 21
-0.3754479
 31
0.0
  0
LINE
  5
26D
  8
0
  6
CONTINUOUS
 62
     3
 10
-0.8923837
 20
-0.3754479
 30
0.0
 11
-0.866499
 21
-0.36168
 31
0.0
  0
LINE
  5
26E
  8
0
  6
CONTINUOUS
 62
     3
 10
-0.866499
 20
-0.36168
 30
0.0
 11
-0.8440509
 21
-0.354635
 31
0.0
  0
LINE
  5
26F
  8
0
  6
CONTINUOUS
 62
     3
 10
-0.8440509
 20
-0.354635
 30
0.0
 11
-0.8261443
 21
-0.352965
 31
0.0
  0
LINE
  5
270
  8
0
  6
CONTINUOUS
 62
     3
 10
-0.8261443
 20
-0.352965
 30
0.0
 11
-0.8134537
 21
-0.3558911
 31
0.0
  0
LINE
  5
271
  8
0
  6
CONTINUOUS
 62
     3
 10
-0.8134537
 20
-0.3558911
 30
0.0
 11
-0.8065576
 21
-0.3625643
 31
0.0
  0
LINE
  5
272
  8
0
  6
CONTINUOUS
 62
     3
 10
-0.8065576
 20
-0.3625643
 30
0.0
 11
-0.7674034
 21
-0.4394089
 31
0.0
  0
LINE
  5
273
  8
0
  6
CONTINUOUS
 62
     3
 10
-0.7674034
 20
-0.4394089
 30
0.0
 11
-0.7660581
 21
-0.4489103
 31
0.0
  0
LINE
  5
274
  8
0
  6
CONTINUOUS
 62
     3
 10
-0.7660581
 20
-0.4489103
 30
0.0
 11
-0.7711501
 21
-0.4608971
 31
0.0
  0
LINE
  5
275
  8
0
  6
CONTINUOUS
 62
     3
 10
-0.7711501
 20
-0.4608971
 30
0.0
 11
-0.7830264
 21
-0.4744023
 31
0.0
  0
LINE
  5
276
  8
0
  6
CONTINUOUS
 62
     3
 10
-0.7830264
 20
-0.4744023
 30
0.0
 11
-0.8019206
 21
-0.4884222
 31
0.0
  0
LINE
  5
277
  8
0
  6
CONTINUOUS
 62
     3
 10
-0.8019206
 20
-0.4884222
 30
0.0
 11
-0.8282737
 21
-0.5012708
 31
0.0
  0
LINE
  5
278
  8
0
  6
CONTINUOUS
 62
     3
 10
-0.8282737
 20
-0.5012708
 30
0.0
 11
-0.8363406
 21
-0.5072816
 31
0.0
  0
LINE
  5
279
  8
0
  6
CONTINUOUS
 62
     3
 10
-0.8363406
 20
-0.5072816
 30
0.0
 11
-0.843907
 21
-0.5139179
 31
0.0
  0
LINE
  5
27A
  8
0
  6
CONTINUOUS
 62
     3
 10
-0.843907
 20
-0.5139179
 30
0.0
 11
-0.8511197
 21
-0.5209379
 31
0.0
  0
LINE
  5
27B
  8
0
  6
CONTINUOUS
 62
     3
 10
-0.8511197
 20
-0.5209379
 30
0.0
 11
-0.858032
 21
-0.5282541
 31
0.0
  0
LINE
  5
27C
  8
0
  6
CONTINUOUS
 62
     3
 10
-0.858032
 20
-0.5282541
 30
0.0
 11
-0.8646752
 21
-0.5358158
 31
0.0
  0
LINE
  5
27D
  8
0
  6
CONTINUOUS
 62
     3
 10
-0.8646752
 20
-0.5358158
 30
0.0
 11
-0.8710705
 21
-0.5435884
 31
0.0
  0
LINE
  5
27E
  8
0
  6
CONTINUOUS
 62
     3
 10
-0.8710705
 20
-0.5435884
 30
0.0
 11
-0.877234
 21
-0.5515461
 31
0.0
  0
LINE
  5
27F
  8
0
  6
CONTINUOUS
 62
     3
 10
-0.877234
 20
-0.5515461
 30
0.0
 11
-0.883178
 21
-0.5596691
 31
0.0
  0
LINE
  5
280
  8
0
  6
CONTINUOUS
 62
     3
 10
-0.883178
 20
-0.5596691
 30
0.0
 11
-0.8889129
 21
-0.5679411
 31
0.0
  0
LINE
  5
281
  8
0
  6
CONTINUOUS
 62
     3
 10
-0.8889129
 20
-0.5679411
 30
0.0
 11
-0.8944472
 21
-0.5763487
 31
0.0
  0
LINE
  5
282
  8
0
  6
CONTINUOUS
 62
     3
 10
-0.8944472
 20
-0.5763487
 30
0.0
 11
-0.8997883
 21
-0.5848803
 31
0.0
  0
LINE
  5
283
  8
0
  6
CONTINUOUS
 62
     3
 10
-0.8997883
 20
-0.5848803
 30
0.0
 11
-0.9049426
 21
-0.5935261
 31
0.0
  0
LINE
  5
284
  8
0
  6
CONTINUOUS
 62
     3
 10
-0.9049426
 20
-0.5935261
 30
0.0
 11
-0.9099158
 21
-0.6022774
 31
0.0
  0
LINE
  5
285
  8
0
  6
CONTINUOUS
 62
     3
 10
-0.9099158
 20
-0.6022774
 30
0.0
 11
-0.9147129
 21
-0.6111264
 31
0.0
  0
LINE
  5
286
  8
0
  6
CONTINUOUS
 62
     3
 10
-0.9147129
 20
-0.6111264
 30
0.0
 11
-0.8638776
 21
-0.6810952
 31
0.0
  0
LINE
  5
287
  8
0
  6
CONTINUOUS
 62
     3
 10
-0.8638776
 20
-0.6810952
 30
0.0
 11
-0.8539793
 21
-0.6792674
 31
0.0
  0
LINE
  5
288
  8
0
  6
CONTINUOUS
 62
     3
 10
-0.8539793
 20
-0.6792674
 30
0.0
 11
-0.8441195
 21
-0.6772419
 31
0.0
  0
LINE
  5
289
  8
0
  6
CONTINUOUS
 62
     3
 10
-0.8441195
 20
-0.6772419
 30
0.0
 11
-0.8343041
 21
-0.6750116
 31
0.0
  0
LINE
  5
28A
  8
0
  6
CONTINUOUS
 62
     3
 10
-0.8343041
 20
-0.6750116
 30
0.0
 11
-0.8245395
 21
-0.6725683
 31
0.0
  0
LINE
  5
28B
  8
0
  6
CONTINUOUS
 62
     3
 10
-0.8245395
 20
-0.6725683
 30
0.0
 11
-0.8148333
 21
-0.669903
 31
0.0
  0
LINE
  5
28C
  8
0
  6
CONTINUOUS
 62
     3
 10
-0.8148333
 20
-0.669903
 30
0.0
 11
-0.8051939
 21
-0.667005
 31
0.0
  0
LINE
  5
28D
  8
0
  6
CONTINUOUS
 62
     3
 10
-0.8051939
 20
-0.667005
 30
0.0
 11
-0.7956317
 21
-0.6638619
 31
0.0
  0
LINE
  5
28E
  8
0
  6
CONTINUOUS
 62
     3
 10
-0.7956317
 20
-0.6638619
 30
0.0
 11
-0.7861588
 21
-0.6604592
 31
0.0
  0
LINE
  5
28F
  8
0
  6
CONTINUOUS
 62
     3
 10
-0.7861588
 20
-0.6604592
 30
0.0
 11
-0.7767905
 21
-0.6567788
 31
0.0
  0
LINE
  5
290
  8
0
  6
CONTINUOUS
 62
     3
 10
-0.7767905
 20
-0.6567788
 30
0.0
 11
-0.767546
 21
-0.6527974
 31
0.0
  0
LINE
  5
291
  8
0
  6
CONTINUOUS
 62
     3
 10
-0.767546
 20
-0.6527974
 30
0.0
 11
-0.7584518
 21
-0.6484843
 31
0.0
  0
LINE
  5
292
  8
0
  6
CONTINUOUS
 62
     3
 10
-0.7584518
 20
-0.6484843
 30
0.0
 11
-0.7495466
 21
-0.6437938
 31
0.0
  0
LINE
  5
293
  8
0
  6
CONTINUOUS
 62
     3
 10
-0.7495466
 20
-0.6437938
 30
0.0
 11
-0.7408969
 21
-0.6386485
 31
0.0
  0
LINE
  5
294
  8
0
  6
CONTINUOUS
 62
     3
 10
-0.7408969
 20
-0.6386485
 30
0.0
 11
-0.7326876
 21
-0.6328339
 31
0.0
  0
LINE
  5
295
  8
0
  6
CONTINUOUS
 62
     3
 10
-0.7326876
 20
-0.6328339
 30
0.0
 11
-0.7123242
 21
-0.611741
 31
0.0
  0
LINE
  5
296
  8
0
  6
CONTINUOUS
 62
     3
 10
-0.7123242
 20
-0.611741
 30
0.0
 11
-0.6931518
 21
-0.598104
 31
0.0
  0
LINE
  5
297
  8
0
  6
CONTINUOUS
 62
     3
 10
-0.6931518
 20
-0.598104
 30
0.0
 11
-0.6766377
 21
-0.5909823
 31
0.0
  0
LINE
  5
298
  8
0
  6
CONTINUOUS
 62
     3
 10
-0.6766377
 20
-0.5909823
 30
0.0
 11
-0.663664
 21
-0.5898436
 31
0.0
  0
LINE
  5
299
  8
0
  6
CONTINUOUS
 62
     3
 10
-0.663664
 20
-0.5898436
 30
0.0
 11
-0.6550434
 21
-0.5940592
 31
0.0
  0
LINE
  5
29A
  8
0
  6
CONTINUOUS
 62
     3
 10
-0.6550434
 20
-0.5940592
 30
0.0
 11
-0.5940592
 21
-0.6550434
 31
0.0
  0
LINE
  5
29B
  8
0
  6
CONTINUOUS
 62
     3
 10
-0.5940592
 20
-0.6550434
 30
0.0
 11
-0.5898436
 21
-0.663664
 31
0.0
  0
LINE
  5
29C
  8
0
  6
CONTINUOUS
 62
     3
 10
-0.5898436
 20
-0.663664
 30
0.0
 11
-0.5909823
 21
-0.6766377
 31
0.0
  0
LINE
  5
29D
  8
0
  6
CONTINUOUS
 62
     3
 10
-0.5909823
 20
-0.6766377
 30
0.0
 11
-0.598104
 21
-0.6931518
 31
0.0
  0
LINE
  5
29E
  8
0
  6
CONTINUOUS
 62
     3
 10
-0.598104
 20
-0.6931518
 30
0.0
 11
-0.611741
 21
-0.7123242
 31
0.0
  0
LINE
  5
29F
  8
0
  6
CONTINUOUS
 62
     3
 10
-0.611741
 20
-0.7123242
 30
0.0
 11
-0.6328339
 21
-0.7326876
 31
0.0
  0
LINE
  5
2A0
  8
0
  6
CONTINUOUS
 62
     3
 10
-0.6328339
 20
-0.7326876
 30
0.0
 11
-0.6386485
 21
-0.7408969
 31
0.0
  0
LINE
  5
2A1
  8
0
  6
CONTINUOUS
 62
     3
 10
-0.6386485
 20
-0.7408969
 30
0.0
 11
-0.6437938
 21
-0.7495466
 31
0.0
  0
LINE
  5
2A2
  8
0
  6
CONTINUOUS
 62
     3
 10
-0.6437938
 20
-0.7495466
 30
0.0
 11
-0.6484843
 21
-0.7584518
 31
0.0
  0
LINE
  5
2A3
  8
0
  6
CONTINUOUS
 62
     3
 10
-0.6484843
 20
-0.7584518
 30
0.0
 11
-0.6527974
 21
-0.767546
 31
0.0
  0
LINE
  5
2A4
  8
0
  6
CONTINUOUS
 62
     3
 10
-0.6527974
 20
-0.767546
 30
0.0
 11
-0.6567788
 21
-0.7767905
 31
0.0
  0
LINE
  5
2A5
  8
0
  6
CONTINUOUS
 62
     3
 10
-0.6567788
 20
-0.7767905
 30
0.0
 11
-0.6604592
 21
-0.7861588
 31
0.0
  0
LINE
  5
2A6
  8
0
  6
CONTINUOUS
 62
     3
 10
-0.6604592
 20
-0.7861588
 30
0.0
 11
-0.6638619
 21
-0.7956317
 31
0.0
  0
LINE
  5
2A7
  8
0
  6
CONTINUOUS
 62
     3
 10
-0.6638619
 20
-0.7956317
 30
0.0
 11
-0.667005
 21
-0.8051939
 31
0.0
  0
LINE
  5
2A8
  8
0
  6
CONTINUOUS
 62
     3
 10
-0.667005
 20
-0.8051939
 30
0.0
 11
-0.669903
 21
-0.8148333
 31
0.0
  0
LINE
  5
2A9
  8
0
  6
CONTINUOUS
 62
     3
 10
-0.669903
 20
-0.8148333
 30
0.0
 11
-0.6725683
 21
-0.8245395
 31
0.0
  0
LINE
  5
2AA
  8
0
  6
CONTINUOUS
 62
     3
 10
-0.6725683
 20
-0.8245395
 30
0.0
 11
-0.6750116
 21
-0.8343041
 31
0.0
  0
LINE
  5
2AB
  8
0
  6
CONTINUOUS
 62
     3
 10
-0.6750116
 20
-0.8343041
 30
0.0
 11
-0.6772419
 21
-0.8441195
 31
0.0
  0
LINE
  5
2AC
  8
0
  6
CONTINUOUS
 62
     3
 10
-0.6772419
 20
-0.8441195
 30
0.0
 11
-0.6792674
 21
-0.8539793
 31
0.0
  0
LINE
  5
2AD
  8
0
  6
CONTINUOUS
 62
     3
 10
-0.6792674
 20
-0.8539793
 30
0.0
 11
-0.6810952
 21
-0.8638776
 31
0.0
  0
LINE
  5
2AE
  8
0
  6
CONTINUOUS
 62
     3
 10
-0.6810952
 20
-0.8638776
 30
0.0
 11
-0.6111264
 21
-0.9147129
 31
0.0
  0
LINE
  5
2AF
  8
0
  6
CONTINUOUS
 62
     3
 10
-0.6111264
 20
-0.9147129
 30
0.0
 11
-0.6022774
 21
-0.9099158
 31
0.0
  0
LINE
  5
2B0
  8
0
  6
CONTINUOUS
 62
     3
 10
-0.6022774
 20
-0.9099158
 30
0.0
 11
-0.5935261
 21
-0.9049426
 31
0.0
  0
LINE
  5
2B1
  8
0
  6
CONTINUOUS
 62
     3
 10
-0.5935261
 20
-0.9049426
 30
0.0
 11
-0.5848803
 21
-0.8997883
 31
0.0
  0
LINE
  5
2B2
  8
0
  6
CONTINUOUS
 62
     3
 10
-0.5848803
 20
-0.8997883
 30
0.0
 11
-0.5763487
 21
-0.8944472
 31
0.0
  0
LINE
  5
2B3
  8
0
  6
CONTINUOUS
 62
     3
 10
-0.5763487
 20
-0.8944472
 30
0.0
 11
-0.5679411
 21
-0.8889129
 31
0.0
  0
LINE
  5
2B4
  8
0
  6
CONTINUOUS
 62
     3
 10
-0.5679411
 20
-0.8889129
 30
0.0
 11
-0.5596691
 21
-0.883178
 31
0.0
  0
LINE
  5
2B5
  8
0
  6
CONTINUOUS
 62
     3
 10
-0.5596691
 20
-0.883178
 30
0.0
 11
-0.5515461
 21
-0.877234
 31
0.0
  0
LINE
  5
2B6
  8
0
  6
CONTINUOUS
 62
     3
 10
-0.5515461
 20
-0.877234
 30
0.0
 11
-0.5435884
 21
-0.8710705
 31
0.0
  0
LINE
  5
2B7
  8
0
  6
CONTINUOUS
 62
     3
 10
-0.5435884
 20
-0.8710705
 30
0.0
 11
-0.5358158
 21
-0.8646752
 31
0.0
  0
LINE
  5
2B8
  8
0
  6
CONTINUOUS
 62
     3
 10
-0.5358158
 20
-0.8646752
 30
0.0
 11
-0.5282541
 21
-0.858032
 31
0.0
  0
LINE
  5
2B9
  8
0
  6
CONTINUOUS
 62
     3
 10
-0.5282541
 20
-0.858032
 30
0.0
 11
-0.5209379
 21
-0.8511197
 31
0.0
  0
LINE
  5
2BA
  8
0
  6
CONTINUOUS
 62
     3
 10
-0.5209379
 20
-0.8511197
 30
0.0
 11
-0.5139179
 21
-0.843907
 31
0.0
  0
LINE
  5
2BB
  8
0
  6
CONTINUOUS
 62
     3
 10
-0.5139179
 20
-0.843907
 30
0.0
 11
-0.5072816
 21
-0.8363406
 31
0.0
  0
LINE
  5
2BC
  8
0
  6
CONTINUOUS
 62
     3
 10
-0.5072816
 20
-0.8363406
 30
0.0
 11
-0.5012708
 21
-0.8282737
 31
0.0
  0
LINE
  5
2BD
  8
0
  6
CONTINUOUS
 62
     3
 10
-0.5012708
 20
-0.8282737
 30
0.0
 11
-0.4884222
 21
-0.8019206
 31
0.0
  0
LINE
  5
2BE
  8
0
  6
CONTINUOUS
 62
     3
 10
-0.4884222
 20
-0.8019206
 30
0.0
 11
-0.4744023
 21
-0.7830264
 31
0.0
  0
LINE
  5
2BF
  8
0
  6
CONTINUOUS
 62
     3
 10
-0.4744023
 20
-0.7830264
 30
0.0
 11
-0.4608971
 21
-0.7711501
 31
0.0
  0
LINE
  5
2C0
  8
0
  6
CONTINUOUS
 62
     3
 10
-0.4608971
 20
-0.7711501
 30
0.0
 11
-0.4489103
 21
-0.7660581
 31
0.0
  0
LINE
  5
2C1
  8
0
  6
CONTINUOUS
 62
     3
 10
-0.4489103
 20
-0.7660581
 30
0.0
 11
-0.4394089
 21
-0.7674034
 31
0.0
  0
LINE
  5
2C2
  8
0
  6
CONTINUOUS
 62
     3
 10
-0.4394089
 20
-0.7674034
 30
0.0
 11
-0.3625643
 21
-0.8065576
 31
0.0
  0
LINE
  5
2C3
  8
0
  6
CONTINUOUS
 62
     3
 10
-0.3625643
 20
-0.8065576
 30
0.0
 11
-0.3558911
 21
-0.8134537
 31
0.0
  0
LINE
  5
2C4
  8
0
  6
CONTINUOUS
 62
     3
 10
-0.3558911
 20
-0.8134537
 30
0.0
 11
-0.352965
 21
-0.8261443
 31
0.0
  0
LINE
  5
2C5
  8
0
  6
CONTINUOUS
 62
     3
 10
-0.352965
 20
-0.8261443
 30
0.0
 11
-0.354635
 21
-0.8440509
 31
0.0
  0
LINE
  5
2C6
  8
0
  6
CONTINUOUS
 62
     3
 10
-0.354635
 20
-0.8440509
 30
0.0
 11
-0.36168
 21
-0.866499
 31
0.0
  0
LINE
  5
2C7
  8
0
  6
CONTINUOUS
 62
     3
 10
-0.36168
 20
-0.866499
 30
0.0
 11
-0.3754479
 21
-0.8923837
 31
0.0
  0
LINE
  5
2C8
  8
0
  6
CONTINUOUS
 62
     3
 10
-0.3754479
 20
-0.8923837
 30
0.0
 11
-0.3784411
 21
-0.9019881
 31
0.0
  0
LINE
  5
2C9
  8
0
  6
CONTINUOUS
 62
     3
 10
-0.3784411
 20
-0.9019881
 30
0.0
 11
-0.3806617
 21
-0.9118044
 31
0.0
  0
LINE
  5
2CA
  8
0
  6
CONTINUOUS
 62
     3
 10
-0.3806617
 20
-0.9118044
 30
0.0
 11
-0.3823707
 21
-0.9217232
 31
0.0
  0
LINE
  5
2CB
  8
0
  6
CONTINUOUS
 62
     3
 10
-0.3823707
 20
-0.9217232
 30
0.0
 11
-0.3836625
 21
-0.9317051
 31
0.0
  0
LINE
  5
2CC
  8
0
  6
CONTINUOUS
 62
     3
 10
-0.3836625
 20
-0.9317051
 30
0.0
 11
-0.3845923
 21
-0.9417274
 31
0.0
  0
LINE
  5
2CD
  8
0
  6
CONTINUOUS
 62
     3
 10
-0.3845923
 20
-0.9417274
 30
0.0
 11
-0.3851976
 21
-0.9517746
 31
0.0
  0
LINE
  5
2CE
  8
0
  6
CONTINUOUS
 62
     3
 10
-0.3851976
 20
-0.9517746
 30
0.0
 11
-0.3855065
 21
-0.9618353
 31
0.0
  0
LINE
  5
2CF
  8
0
  6
CONTINUOUS
 62
     3
 10
-0.3855065
 20
-0.9618353
 30
0.0
 11
-0.3855408
 21
-0.9719008
 31
0.0
  0
LINE
  5
2D0
  8
0
  6
CONTINUOUS
 62
     3
 10
-0.3855408
 20
-0.9719008
 30
0.0
 11
-0.3853183
 21
-0.9819639
 31
0.0
  0
LINE
  5
2D1
  8
0
  6
CONTINUOUS
 62
     3
 10
-0.3853183
 20
-0.9819639
 30
0.0
 11
-0.3848538
 21
-0.9920188
 31
0.0
  0
LINE
  5
2D2
  8
0
  6
CONTINUOUS
 62
     3
 10
-0.3848538
 20
-0.9920188
 30
0.0
 11
-0.38416
 21
-1.0020604
 31
0.0
  0
LINE
  5
2D3
  8
0
  6
CONTINUOUS
 62
     3
 10
-0.38416
 20
-1.0020604
 30
0.0
 11
-0.3832481
 21
-1.0120846
 31
0.0
  0
LINE
  5
2D4
  8
0
  6
CONTINUOUS
 62
     3
 10
-0.3832481
 20
-1.0120846
 30
0.0
 11
-0.3821276
 21
-1.0220877
 31
0.0
  0
LINE
  5
2D5
  8
0
  6
CONTINUOUS
 62
     3
 10
-0.3821276
 20
-1.0220877
 30
0.0
 11
-0.3808072
 21
-1.0320664
 31
0.0
  0
LINE
  5
2D6
  8
0
  6
CONTINUOUS
 62
     3
 10
-0.3808072
 20
-1.0320664
 30
0.0
 11
-0.2985539
 21
-1.0587921
 31
0.0
  0
LINE
  5
2D7
  8
0
  6
CONTINUOUS
 62
     3
 10
-0.2985539
 20
-1.0587921
 30
0.0
 11
-0.2916204
 21
-1.0514953
 31
0.0
  0
LINE
  5
2D8
  8
0
  6
CONTINUOUS
 62
     3
 10
-0.2916204
 20
-1.0514953
 30
0.0
 11
-0.2848342
 21
-1.0440612
 31
0.0
  0
LINE
  5
2D9
  8
0
  6
CONTINUOUS
 62
     3
 10
-0.2848342
 20
-1.0440612
 30
0.0
 11
-0.2782043
 21
-1.0364875
 31
0.0
  0
LINE
  5
2DA
  8
0
  6
CONTINUOUS
 62
     3
 10
-0.2782043
 20
-1.0364875
 30
0.0
 11
-0.2717408
 21
-1.0287714
 31
0.0
  0
LINE
  5
2DB
  8
0
  6
CONTINUOUS
 62
     3
 10
-0.2717408
 20
-1.0287714
 30
0.0
 11
-0.2654549
 21
-1.0209099
 31
0.0
  0
LINE
  5
2DC
  8
0
  6
CONTINUOUS
 62
     3
 10
-0.2654549
 20
-1.0209099
 30
0.0
 11
-0.2593599
 21
-1.0128995
 31
0.0
  0
LINE
  5
2DD
  8
0
  6
CONTINUOUS
 62
     3
 10
-0.2593599
 20
-1.0128995
 30
0.0
 11
-0.2534713
 21
-1.0047362
 31
0.0
  0
LINE
  5
2DE
  8
0
  6
CONTINUOUS
 62
     3
 10
-0.2534713
 20
-1.0047362
 30
0.0
 11
-0.2478077
 21
-0.9964153
 31
0.0
  0
LINE
  5
2DF
  8
0
  6
CONTINUOUS
 62
     3
 10
-0.2478077
 20
-0.9964153
 30
0.0
 11
-0.2423918
 21
-0.9879311
 31
0.0
  0
LINE
  5
2E0
  8
0
  6
CONTINUOUS
 62
     3
 10
-0.2423918
 20
-0.9879311
 30
0.0
 11
-0.2372531
 21
-0.9792764
 31
0.0
  0
LINE
  5
2E1
  8
0
  6
CONTINUOUS
 62
     3
 10
-0.2372531
 20
-0.9792764
 30
0.0
 11
-0.2324309
 21
-0.9704416
 31
0.0
  0
LINE
  5
2E2
  8
0
  6
CONTINUOUS
 62
     3
 10
-0.2324309
 20
-0.9704416
 30
0.0
 11
-0.2279834
 21
-0.9614126
 31
0.0
  0
LINE
  5
2E3
  8
0
  6
CONTINUOUS
 62
     3
 10
-0.2279834
 20
-0.9614126
 30
0.0
 11
-0.22401
 21
-0.9521658
 31
0.0
  0
LINE
  5
2E4
  8
0
  6
CONTINUOUS
 62
     3
 10
-0.22401
 20
-0.9521658
 30
0.0
 11
-0.2207862
 21
-0.9426364
 31
0.0
  0
LINE
  5
2E5
  8
0
  6
CONTINUOUS
 62
     3
 10
-0.2207862
 20
-0.9426364
 30
0.0
 11
-0.2167101
 21
-0.9136026
 31
0.0
  0
LINE
  5
2E6
  8
0
  6
CONTINUOUS
 62
     3
 10
-0.2167101
 20
-0.9136026
 30
0.0
 11
-0.2092149
 21
-0.8913007
 31
0.0
  0
LINE
  5
2E7
  8
0
  6
CONTINUOUS
 62
     3
 10
-0.2092149
 20
-0.8913007
 30
0.0
 11
-0.2000407
 21
-0.8758324
 31
0.0
  0
LINE
  5
2E8
  8
0
  6
CONTINUOUS
 62
     3
 10
-0.2000407
 20
-0.8758324
 30
0.0
 11
-0.1902141
 21
-0.8672854
 31
0.0
  0
LINE
  5
2E9
  8
0
  6
CONTINUOUS
 62
     3
 10
-0.1902141
 20
-0.8672854
 30
0.0
 11
-0.180762
 21
-0.8656288
 31
0.0
  0
LINE
  5
2EA
  8
0
  6
CONTINUOUS
 62
     3
 10
-0.180762
 20
-0.8656288
 30
0.0
 11
-0.0955791
 21
-0.8791204
 31
0.0
  0
LINE
  5
2EB
  8
0
  6
CONTINUOUS
 62
     3
 10
-0.0955791
 20
-0.8791204
 30
0.0
 11
-0.0871016
 21
-0.8836169
 31
0.0
  0
LINE
  5
2EC
  8
0
  6
CONTINUOUS
 62
     3
 10
-0.0871016
 20
-0.8836169
 30
0.0
 11
-0.080397
 21
-0.8947821
 31
0.0
  0
LINE
  5
2ED
  8
0
  6
CONTINUOUS
 62
     3
 10
-0.080397
 20
-0.8947821
 30
0.0
 11
-0.0764519
 21
-0.9123283
 31
0.0
  0
LINE
  5
2EE
  8
0
  6
CONTINUOUS
 62
     3
 10
-0.0764519
 20
-0.9123283
 30
0.0
 11
-0.0762152
 21
-0.9358548
 31
0.0
  0
LINE
  5
2EF
  8
0
  6
CONTINUOUS
 62
     3
 10
-0.0762152
 20
-0.9358548
 30
0.0
 11
-0.0813105
 21
-0.9647271
 31
0.0
  0
LINE
  5
2F0
  8
0
  6
CONTINUOUS
 62
     3
 10
-0.0813105
 20
-0.9647271
 30
0.0
 11
-0.0811892
 21
-0.9747864
 31
0.0
  0
LINE
  5
2F1
  8
0
  6
CONTINUOUS
 62
     3
 10
-0.0811892
 20
-0.9747864
 30
0.0
 11
-0.0802677
 21
-0.9848085
 31
0.0
  0
LINE
  5
2F2
  8
0
  6
CONTINUOUS
 62
     3
 10
-0.0802677
 20
-0.9848085
 30
0.0
 11
-0.078828
 21
-0.9947699
 31
0.0
  0
LINE
  5
2F3
  8
0
  6
CONTINUOUS
 62
     3
 10
-0.078828
 20
-0.9947699
 30
0.0
 11
-0.076972
 21
-1.0046625
 31
0.0
  0
LINE
  5
2F4
  8
0
  6
CONTINUOUS
 62
     3
 10
-0.076972
 20
-1.0046625
 30
0.0
 11
-0.0747592
 21
-1.0144815
 31
0.0
  0
LINE
  5
2F5
  8
0
  6
CONTINUOUS
 62
     3
 10
-0.0747592
 20
-1.0144815
 30
0.0
 11
-0.0722302
 21
-1.0242241
 31
0.0
  0
LINE
  5
2F6
  8
0
  6
CONTINUOUS
 62
     3
 10
-0.0722302
 20
-1.0242241
 30
0.0
 11
-0.069415
 21
-1.0338878
 31
0.0
  0
LINE
  5
2F7
  8
0
  6
CONTINUOUS
 62
     3
 10
-0.069415
 20
-1.0338878
 30
0.0
 11
-0.0663372
 21
-1.0434713
 31
0.0
  0
LINE
  5
2F8
  8
0
  6
CONTINUOUS
 62
     3
 10
-0.0663372
 20
-1.0434713
 30
0.0
 11
-0.0630159
 21
-1.0529731
 31
0.0
  0
LINE
  5
2F9
  8
0
  6
CONTINUOUS
 62
     3
 10
-0.0630159
 20
-1.0529731
 30
0.0
 11
-0.059467
 21
-1.0623923
 31
0.0
  0
LINE
  5
2FA
  8
0
  6
CONTINUOUS
 62
     3
 10
-0.059467
 20
-1.0623923
 30
0.0
 11
-0.0557042
 21
-1.0717281
 31
0.0
  0
LINE
  5
2FB
  8
0
  6
CONTINUOUS
 62
     3
 10
-0.0557042
 20
-1.0717281
 30
0.0
 11
-0.0517392
 21
-1.0809799
 31
0.0
  0
LINE
  5
2FC
  8
0
  6
CONTINUOUS
 62
     3
 10
-0.0517392
 20
-1.0809799
 30
0.0
 11
-0.0475824
 21
-1.0901471
 31
0.0
  0
LINE
  5
2FD
  8
0
  6
CONTINUOUS
 62
     3
 10
-0.0475824
 20
-1.0901471
 30
0.0
 11
-0.0432431
 21
-1.0992294
 31
0.0
  0
LINE
  5
2FE
  8
0
  6
CONTINUOUS
 62
     3
 10
-0.0432431
 20
-1.0992294
 30
0.0
 11
0.0432431
 21
-1.0992294
 31
0.0
  0
LINE
  5
2FF
  8
0
  6
CONTINUOUS
 62
     3
 10
0.0432431
 20
-1.0992294
 30
0.0
 11
0.0475824
 21
-1.0901471
 31
0.0
  0
LINE
  5
300
  8
0
  6
CONTINUOUS
 62
     3
 10
0.0475824
 20
-1.0901471
 30
0.0
 11
0.0517392
 21
-1.0809799
 31
0.0
  0
LINE
  5
301
  8
0
  6
CONTINUOUS
 62
     3
 10
0.0517392
 20
-1.0809799
 30
0.0
 11
0.0557042
 21
-1.0717281
 31
0.0
  0
LINE
  5
302
  8
0
  6
CONTINUOUS
 62
     3
 10
0.0557042
 20
-1.0717281
 30
0.0
 11
0.059467
 21
-1.0623923
 31
0.0
  0
LINE
  5
303
  8
0
  6
CONTINUOUS
 62
     3
 10
0.059467
 20
-1.0623923
 30
0.0
 11
0.0630159
 21
-1.0529731
 31
0.0
  0
LINE
  5
304
  8
0
  6
CONTINUOUS
 62
     3
 10
0.0630159
 20
-1.0529731
 30
0.0
 11
0.0663372
 21
-1.0434713
 31
0.0
  0
LINE
  5
305
  8
0
  6
CONTINUOUS
 62
     3
 10
0.0663372
 20
-1.0434713
 30
0.0
 11
0.069415
 21
-1.0338878
 31
0.0
  0
LINE
  5
306
  8
0
  6
CONTINUOUS
 62
     3
 10
0.069415
 20
-1.0338878
 30
0.0
 11
0.0722302
 21
-1.0242241
 31
0.0
  0
LINE
  5
307
  8
0
  6
CONTINUOUS
 62
     3
 10
0.0722302
 20
-1.0242241
 30
0.0
 11
0.0747592
 21
-1.0144815
 31
0.0
  0
LINE
  5
308
  8
0
  6
CONTINUOUS
 62
     3
 10
0.0747592
 20
-1.0144815
 30
0.0
 11
0.076972
 21
-1.0046625
 31
0.0
  0
LINE
  5
309
  8
0
  6
CONTINUOUS
 62
     3
 10
0.076972
 20
-1.0046625
 30
0.0
 11
0.078828
 21
-0.9947699
 31
0.0
  0
LINE
  5
30A
  8
0
  6
CONTINUOUS
 62
     3
 10
0.078828
 20
-0.9947699
 30
0.0
 11
0.0802677
 21
-0.9848085
 31
0.0
  0
LINE
  5
30B
  8
0
  6
CONTINUOUS
 62
     3
 10
0.0802677
 20
-0.9848085
 30
0.0
 11
0.0811892
 21
-0.9747864
 31
0.0
  0
LINE
  5
30C
  8
0
  6
CONTINUOUS
 62
     3
 10
0.0811892
 20
-0.9747864
 30
0.0
 11
0.0813105
 21
-0.9647271
 31
0.0
  0
LINE
  5
30D
  8
0
  6
CONTINUOUS
 62
     3
 10
0.0813105
 20
-0.9647271
 30
0.0
 11
0.0762152
 21
-0.9358548
 31
0.0
  0
LINE
  5
30E
  8
0
  6
CONTINUOUS
 62
     3
 10
0.0762152
 20
-0.9358548
 30
0.0
 11
0.0764519
 21
-0.9123283
 31
0.0
  0
LINE
  5
30F
  8
0
  6
CONTINUOUS
 62
     3
 10
0.0764519
 20
-0.9123283
 30
0.0
 11
0.080397
 21
-0.8947821
 31
0.0
  0
LINE
  5
310
  8
0
  6
CONTINUOUS
 62
     3
 10
0.080397
 20
-0.8947821
 30
0.0
 11
0.0871016
 21
-0.8836169
 31
0.0
  0
LINE
  5
311
  8
0
  6
CONTINUOUS
 62
     3
 10
0.0871016
 20
-0.8836169
 30
0.0
 11
0.0955791
 21
-0.8791204
 31
0.0
  0
LINE
  5
312
  8
0
  6
CONTINUOUS
 62
     3
 10
0.0955791
 20
-0.8791204
 30
0.0
 11
0.180762
 21
-0.8656288
 31
0.0
  0
LINE
  5
313
  8
0
  6
CONTINUOUS
 62
     3
 10
0.180762
 20
-0.8656288
 30
0.0
 11
0.1902141
 21
-0.8672854
 31
0.0
  0
LINE
  5
314
  8
0
  6
CONTINUOUS
 62
     3
 10
0.1902141
 20
-0.8672854
 30
0.0
 11
0.2000407
 21
-0.8758324
 31
0.0
  0
LINE
  5
315
  8
0
  6
CONTINUOUS
 62
     3
 10
0.2000407
 20
-0.8758324
 30
0.0
 11
0.2092149
 21
-0.8913007
 31
0.0
  0
LINE
  5
316
  8
0
  6
CONTINUOUS
 62
     3
 10
0.2092149
 20
-0.8913007
 30
0.0
 11
0.2167101
 21
-0.9136026
 31
0.0
  0
LINE
  5
317
  8
0
  6
CONTINUOUS
 62
     3
 10
0.2167101
 20
-0.9136026
 30
0.0
 11
0.2207862
 21
-0.9426364
 31
0.0
  0
LINE
  5
318
  8
0
  6
CONTINUOUS
 62
     3
 10
0.2207862
 20
-0.9426364
 30
0.0
 11
0.22401
 21
-0.9521658
 31
0.0
  0
LINE
  5
319
  8
0
  6
CONTINUOUS
 62
     3
 10
0.22401
 20
-0.9521658
 30
0.0
 11
0.2279834
 21
-0.9614126
 31
0.0
  0
LINE
  5
31A
  8
0
  6
CONTINUOUS
 62
     3
 10
0.2279834
 20
-0.9614126
 30
0.0
 11
0.2324309
 21
-0.9704416
 31
0.0
  0
LINE
  5
31B
  8
0
  6
CONTINUOUS
 62
     3
 10
0.2324309
 20
-0.9704416
 30
0.0
 11
0.2372531
 21
-0.9792764
 31
0.0
  0
LINE
  5
31C
  8
0
  6
CONTINUOUS
 62
     3
 10
0.2372531
 20
-0.9792764
 30
0.0
 11
0.2423918
 21
-0.9879311
 31
0.0
  0
LINE
  5
31D
  8
0
  6
CONTINUOUS
 62
     3
 10
0.2423918
 20
-0.9879311
 30
0.0
 11
0.2478077
 21
-0.9964153
 31
0.0
  0
LINE
  5
31E
  8
0
  6
CONTINUOUS
 62
     3
 10
0.2478077
 20
-0.9964153
 30
0.0
 11
0.2534713
 21
-1.0047362
 31
0.0
  0
LINE
  5
31F
  8
0
  6
CONTINUOUS
 62
     3
 10
0.2534713
 20
-1.0047362
 30
0.0
 11
0.2593599
 21
-1.0128995
 31
0.0
  0
LINE
  5
320
  8
0
  6
CONTINUOUS
 62
     3
 10
0.2593599
 20
-1.0128995
 30
0.0
 11
0.2654549
 21
-1.0209099
 31
0.0
  0
LINE
  5
321
  8
0
  6
CONTINUOUS
 62
     3
 10
0.2654549
 20
-1.0209099
 30
0.0
 11
0.2717408
 21
-1.0287714
 31
0.0
  0
LINE
  5
322
  8
0
  6
CONTINUOUS
 62
     3
 10
0.2717408
 20
-1.0287714
 30
0.0
 11
0.2782043
 21
-1.0364875
 31
0.0
  0
LINE
  5
323
  8
0
  6
CONTINUOUS
 62
     3
 10
0.2782043
 20
-1.0364875
 30
0.0
 11
0.2848342
 21
-1.0440612
 31
0.0
  0
LINE
  5
324
  8
0
  6
CONTINUOUS
 62
     3
 10
0.2848342
 20
-1.0440612
 30
0.0
 11
0.2916204
 21
-1.0514953
 31
0.0
  0
LINE
  5
325
  8
0
  6
CONTINUOUS
 62
     3
 10
0.2916204
 20
-1.0514953
 30
0.0
 11
0.2985539
 21
-1.0587921
 31
0.0
  0
LINE
  5
326
  8
0
  6
CONTINUOUS
 62
     3
 10
0.2985539
 20
-1.0587921
 30
0.0
 11
0.3808072
 21
-1.0320664
 31
0.0
  0
LINE
  5
327
  8
0
  6
CONTINUOUS
 62
     3
 10
0.3808072
 20
-1.0320664
 30
0.0
 11
0.3821276
 21
-1.0220877
 31
0.0
  0
LINE
  5
328
  8
0
  6
CONTINUOUS
 62
     3
 10
0.3821276
 20
-1.0220877
 30
0.0
 11
0.3832481
 21
-1.0120846
 31
0.0
  0
LINE
  5
329
  8
0
  6
CONTINUOUS
 62
     3
 10
0.3832481
 20
-1.0120846
 30
0.0
 11
0.38416
 21
-1.0020604
 31
0.0
  0
LINE
  5
32A
  8
0
  6
CONTINUOUS
 62
     3
 10
0.38416
 20
-1.0020604
 30
0.0
 11
0.3848538
 21
-0.9920188
 31
0.0
  0
LINE
  5
32B
  8
0
  6
CONTINUOUS
 62
     3
 10
0.3848538
 20
-0.9920188
 30
0.0
 11
0.3853183
 21
-0.9819639
 31
0.0
  0
LINE
  5
32C
  8
0
  6
CONTINUOUS
 62
     3
 10
0.3853183
 20
-0.9819639
 30
0.0
 11
0.3855408
 21
-0.9719008
 31
0.0
  0
LINE
  5
32D
  8
0
  6
CONTINUOUS
 62
     3
 10
0.3855408
 20
-0.9719008
 30
0.0
 11
0.3855065
 21
-0.9618353
 31
0.0
  0
LINE
  5
32E
  8
0
  6
CONTINUOUS
 62
     3
 10
0.3855065
 20
-0.9618353
 30
0.0
 11
0.3851976
 21
-0.9517746
 31
0.0
  0
LINE
  5
32F
  8
0
  6
CONTINUOUS
 62
     3
 10
0.3851976
 20
-0.9517746
 30
0.0
 11
0.3845923
 21
-0.9417274
 31
0.0
  0
LINE
  5
330
  8
0
  6
CONTINUOUS
 62
     3
 10
0.3845923
 20
-0.9417274
 30
0.0
 11
0.3836625
 21
-0.9317051
 31
0.0
  0
LINE
  5
331
  8
0
  6
CONTINUOUS
 62
     3
 10
0.3836625
 20
-0.9317051
 30
0.0
 11
0.3823707
 21
-0.9217232
 31
0.0
  0
LINE
  5
332
  8
0
  6
CONTINUOUS
 62
     3
 10
0.3823707
 20
-0.9217232
 30
0.0
 11
0.3806617
 21
-0.9118044
 31
0.0
  0
LINE
  5
333
  8
0
  6
CONTINUOUS
 62
     3
 10
0.3806617
 20
-0.9118044
 30
0.0
 11
0.3784411
 21
-0.9019881
 31
0.0
  0
LINE
  5
334
  8
0
  6
CONTINUOUS
 62
     3
 10
0.3784411
 20
-0.9019881
 30
0.0
 11
0.3754479
 21
-0.8923837
 31
0.0
  0
LINE
  5
335
  8
0
  6
CONTINUOUS
 62
     3
 10
0.3754479
 20
-0.8923837
 30
0.0
 11
0.36168
 21
-0.866499
 31
0.0
  0
LINE
  5
336
  8
0
  6
CONTINUOUS
 62
     3
 10
0.36168
 20
-0.866499
 30
0.0
 11
0.354635
 21
-0.8440509
 31
0.0
  0
LINE
  5
337
  8
0
  6
CONTINUOUS
 62
     3
 10
0.354635
 20
-0.8440509
 30
0.0
 11
0.352965
 21
-0.8261443
 31
0.0
  0
LINE
  5
338
  8
0
  6
CONTINUOUS
 62
     3
 10
0.352965
 20
-0.8261443
 30
0.0
 11
0.3558911
 21
-0.8134537
 31
0.0
  0
LINE
  5
339
  8
0
  6
CONTINUOUS
 62
     3
 10
0.3558911
 20
-0.8134537
 30
0.0
 11
0.3625643
 21
-0.8065576
 31
0.0
  0
LINE
  5
33A
  8
0
  6
CONTINUOUS
 62
     3
 10
0.3625643
 20
-0.8065576
 30
0.0
 11
0.4394089
 21
-0.7674034
 31
0.0
  0
LINE
  5
33B
  8
0
  6
CONTINUOUS
 62
     3
 10
0.4394089
 20
-0.7674034
 30
0.0
 11
0.4489103
 21
-0.7660581
 31
0.0
  0
LINE
  5
33C
  8
0
  6
CONTINUOUS
 62
     3
 10
0.4489103
 20
-0.7660581
 30
0.0
 11
0.4608971
 21
-0.7711501
 31
0.0
  0
LINE
  5
33D
  8
0
  6
CONTINUOUS
 62
     3
 10
0.4608971
 20
-0.7711501
 30
0.0
 11
0.4744023
 21
-0.7830264
 31
0.0
  0
LINE
  5
33E
  8
0
  6
CONTINUOUS
 62
     3
 10
0.4744023
 20
-0.7830264
 30
0.0
 11
0.4884222
 21
-0.8019206
 31
0.0
  0
LINE
  5
33F
  8
0
  6
CONTINUOUS
 62
     3
 10
0.4884222
 20
-0.8019206
 30
0.0
 11
0.5012708
 21
-0.8282737
 31
0.0
  0
LINE
  5
340
  8
0
  6
CONTINUOUS
 62
     3
 10
0.5012708
 20
-0.8282737
 30
0.0
 11
0.5072816
 21
-0.8363406
 31
0.0
  0
LINE
  5
341
  8
0
  6
CONTINUOUS
 62
     3
 10
0.5072816
 20
-0.8363406
 30
0.0
 11
0.5139179
 21
-0.843907
 31
0.0
  0
LINE
  5
342
  8
0
  6
CONTINUOUS
 62
     3
 10
0.5139179
 20
-0.843907
 30
0.0
 11
0.5209379
 21
-0.8511197
 31
0.0
  0
LINE
  5
343
  8
0
  6
CONTINUOUS
 62
     3
 10
0.5209379
 20
-0.8511197
 30
0.0
 11
0.5282541
 21
-0.858032
 31
0.0
  0
LINE
  5
344
  8
0
  6
CONTINUOUS
 62
     3
 10
0.5282541
 20
-0.858032
 30
0.0
 11
0.5358158
 21
-0.8646752
 31
0.0
  0
LINE
  5
345
  8
0
  6
CONTINUOUS
 62
     3
 10
0.5358158
 20
-0.8646752
 30
0.0
 11
0.5435884
 21
-0.8710705
 31
0.0
  0
LINE
  5
346
  8
0
  6
CONTINUOUS
 62
     3
 10
0.5435884
 20
-0.8710705
 30
0.0
 11
0.5515461
 21
-0.877234
 31
0.0
  0
LINE
  5
347
  8
0
  6
CONTINUOUS
 62
     3
 10
0.5515461
 20
-0.877234
 30
0.0
 11
0.5596691
 21
-0.883178
 31
0.0
  0
LINE
  5
348
  8
0
  6
CONTINUOUS
 62
     3
 10
0.5596691
 20
-0.883178
 30
0.0
 11
0.5679411
 21
-0.8889129
 31
0.0
  0
LINE
  5
349
  8
0
  6
CONTINUOUS
 62
     3
 10
0.5679411
 20
-0.8889129
 30
0.0
 11
0.5763487
 21
-0.8944472
 31
0.0
  0
LINE
  5
34A
  8
0
  6
CONTINUOUS
 62
     3
 10
0.5763487
 20
-0.8944472
 30
0.0
 11
0.5848803
 21
-0.8997883
 31
0.0
  0
LINE
  5
34B
  8
0
  6
CONTINUOUS
 62
     3
 10
0.5848803
 20
-0.8997883
 30
0.0
 11
0.5935261
 21
-0.9049426
 31
0.0
  0
LINE
  5
34C
  8
0
  6
CONTINUOUS
 62
     3
 10
0.5935261
 20
-0.9049426
 30
0.0
 11
0.6022774
 21
-0.9099158
 31
0.0
  0
LINE
  5
34D
  8
0
  6
CONTINUOUS
 62
     3
 10
0.6022774
 20
-0.9099158
 30
0.0
 11
0.6111264
 21
-0.9147129
 31
0.0
  0
LINE
  5
34E
  8
0
  6
CONTINUOUS
 62
     3
 10
0.6111264
 20
-0.9147129
 30
0.0
 11
0.6810952
 21
-0.8638776
 31
0.0
  0
LINE
  5
34F
  8
0
  6
CONTINUOUS
 62
     3
 10
0.6810952
 20
-0.8638776
 30
0.0
 11
0.6792674
 21
-0.8539793
 31
0.0
  0
LINE
  5
350
  8
0
  6
CONTINUOUS
 62
     3
 10
0.6792674
 20
-0.8539793
 30
0.0
 11
0.6772419
 21
-0.8441195
 31
0.0
  0
LINE
  5
351
  8
0
  6
CONTINUOUS
 62
     3
 10
0.6772419
 20
-0.8441195
 30
0.0
 11
0.6750116
 21
-0.8343041
 31
0.0
  0
LINE
  5
352
  8
0
  6
CONTINUOUS
 62
     3
 10
0.6750116
 20
-0.8343041
 30
0.0
 11
0.6725683
 21
-0.8245395
 31
0.0
  0
LINE
  5
353
  8
0
  6
CONTINUOUS
 62
     3
 10
0.6725683
 20
-0.8245395
 30
0.0
 11
0.669903
 21
-0.8148333
 31
0.0
  0
LINE
  5
354
  8
0
  6
CONTINUOUS
 62
     3
 10
0.669903
 20
-0.8148333
 30
0.0
 11
0.667005
 21
-0.8051939
 31
0.0
  0
LINE
  5
355
  8
0
  6
CONTINUOUS
 62
     3
 10
0.667005
 20
-0.8051939
 30
0.0
 11
0.6638619
 21
-0.7956317
 31
0.0
  0
LINE
  5
356
  8
0
  6
CONTINUOUS
 62
     3
 10
0.6638619
 20
-0.7956317
 30
0.0
 11
0.6604592
 21
-0.7861588
 31
0.0
  0
LINE
  5
357
  8
0
  6
CONTINUOUS
 62
     3
 10
0.6604592
 20
-0.7861588
 30
0.0
 11
0.6567788
 21
-0.7767905
 31
0.0
  0
LINE
  5
358
  8
0
  6
CONTINUOUS
 62
     3
 10
0.6567788
 20
-0.7767905
 30
0.0
 11
0.6527974
 21
-0.767546
 31
0.0
  0
LINE
  5
359
  8
0
  6
CONTINUOUS
 62
     3
 10
0.6527974
 20
-0.767546
 30
0.0
 11
0.6484843
 21
-0.7584518
 31
0.0
  0
LINE
  5
35A
  8
0
  6
CONTINUOUS
 62
     3
 10
0.6484843
 20
-0.7584518
 30
0.0
 11
0.6437938
 21
-0.7495466
 31
0.0
  0
LINE
  5
35B
  8
0
  6
CONTINUOUS
 62
     3
 10
0.6437938
 20
-0.7495466
 30
0.0
 11
0.6386485
 21
-0.7408969
 31
0.0
  0
LINE
  5
35C
  8
0
  6
CONTINUOUS
 62
     3
 10
0.6386485
 20
-0.7408969
 30
0.0
 11
0.6328339
 21
-0.7326876
 31
0.0
  0
LINE
  5
35D
  8
0
  6
CONTINUOUS
 62
     3
 10
0.6328339
 20
-0.7326876
 30
0.0
 11
0.611741
 21
-0.7123242
 31
0.0
  0
LINE
  5
35E
  8
0
  6
CONTINUOUS
 62
     3
 10
0.611741
 20
-0.7123242
 30
0.0
 11
0.598104
 21
-0.6931518
 31
0.0
  0
LINE
  5
35F
  8
0
  6
CONTINUOUS
 62
     3
 10
0.598104
 20
-0.6931518
 30
0.0
 11
0.5909823
 21
-0.6766377
 31
0.0
  0
LINE
  5
360
  8
0
  6
CONTINUOUS
 62
     3
 10
0.5909823
 20
-0.6766377
 30
0.0
 11
0.5898436
 21
-0.663664
 31
0.0
  0
LINE
  5
361
  8
0
  6
CONTINUOUS
 62
     3
 10
0.5898436
 20
-0.663664
 30
0.0
 11
0.5940592
 21
-0.6550434
 31
0.0
  0
LINE
  5
362
  8
0
  6
CONTINUOUS
 62
     3
 10
0.5940592
 20
-0.6550434
 30
0.0
 11
0.6550434
 21
-0.5940592
 31
0.0
  0
LINE
  5
363
  8
0
  6
CONTINUOUS
 62
     3
 10
0.6550434
 20
-0.5940592
 30
0.0
 11
0.663664
 21
-0.5898436
 31
0.0
  0
LINE
  5
364
  8
0
  6
CONTINUOUS
 62
     3
 10
0.663664
 20
-0.5898436
 30
0.0
 11
0.6766377
 21
-0.5909823
 31
0.0
  0
LINE
  5
365
  8
0
  6
CONTINUOUS
 62
     3
 10
0.6766377
 20
-0.5909823
 30
0.0
 11
0.6931518
 21
-0.598104
 31
0.0
  0
LINE
  5
366
  8
0
  6
CONTINUOUS
 62
     3
 10
0.6931518
 20
-0.598104
 30
0.0
 11
0.7123242
 21
-0.611741
 31
0.0
  0
LINE
  5
367
  8
0
  6
CONTINUOUS
 62
     3
 10
0.7123242
 20
-0.611741
 30
0.0
 11
0.7326876
 21
-0.6328339
 31
0.0
  0
LINE
  5
368
  8
0
  6
CONTINUOUS
 62
     3
 10
0.7326876
 20
-0.6328339
 30
0.0
 11
0.7408969
 21
-0.6386485
 31
0.0
  0
LINE
  5
369
  8
0
  6
CONTINUOUS
 62
     3
 10
0.7408969
 20
-0.6386485
 30
0.0
 11
0.7495466
 21
-0.6437938
 31
0.0
  0
LINE
  5
36A
  8
0
  6
CONTINUOUS
 62
     3
 10
0.7495466
 20
-0.6437938
 30
0.0
 11
0.7584518
 21
-0.6484843
 31
0.0
  0
LINE
  5
36B
  8
0
  6
CONTINUOUS
 62
     3
 10
0.7584518
 20
-0.6484843
 30
0.0
 11
0.767546
 21
-0.6527974
 31
0.0
  0
LINE
  5
36C
  8
0
  6
CONTINUOUS
 62
     3
 10
0.767546
 20
-0.6527974
 30
0.0
 11
0.7767905
 21
-0.6567788
 31
0.0
  0
LINE
  5
36D
  8
0
  6
CONTINUOUS
 62
     3
 10
0.7767905
 20
-0.6567788
 30
0.0
 11
0.7861588
 21
-0.6604592
 31
0.0
  0
LINE
  5
36E
  8
0
  6
CONTINUOUS
 62
     3
 10
0.7861588
 20
-0.6604592
 30
0.0
 11
0.7956317
 21
-0.6638619
 31
0.0
  0
LINE
  5
36F
  8
0
  6
CONTINUOUS
 62
     3
 10
0.7956317
 20
-0.6638619
 30
0.0
 11
0.8051939
 21
-0.667005
 31
0.0
  0
LINE
  5
370
  8
0
  6
CONTINUOUS
 62
     3
 10
0.8051939
 20
-0.667005
 30
0.0
 11
0.8148333
 21
-0.669903
 31
0.0
  0
LINE
  5
371
  8
0
  6
CONTINUOUS
 62
     3
 10
0.8148333
 20
-0.669903
 30
0.0
 11
0.8245395
 21
-0.6725683
 31
0.0
  0
LINE
  5
372
  8
0
  6
CONTINUOUS
 62
     3
 10
0.8245395
 20
-0.6725683
 30
0.0
 11
0.8343041
 21
-0.6750116
 31
0.0
  0
LINE
  5
373
  8
0
  6
CONTINUOUS
 62
     3
 10
0.8343041
 20
-0.6750116
 30
0.0
 11
0.8441195
 21
-0.6772419
 31
0.0
  0
LINE
  5
374
  8
0
  6
CONTINUOUS
 62
     3
 10
0.8441195
 20
-0.6772419
 30
0.0
 11
0.8539793
 21
-0.6792674
 31
0.0
  0
LINE
  5
375
  8
0
  6
CONTINUOUS
 62
     3
 10
0.8539793
 20
-0.6792674
 30
0.0
 11
0.8638776
 21
-0.6810952
 31
0.0
  0
LINE
  5
376
  8
0
  6
CONTINUOUS
 62
     3
 10
0.8638776
 20
-0.6810952
 30
0.0
 11
0.9147129
 21
-0.6111264
 31
0.0
  0
LINE
  5
377
  8
0
  6
CONTINUOUS
 62
     3
 10
0.9147129
 20
-0.6111264
 30
0.0
 11
0.9099158
 21
-0.6022774
 31
0.0
  0
LINE
  5
378
  8
0
  6
CONTINUOUS
 62
     3
 10
0.9099158
 20
-0.6022774
 30
0.0
 11
0.9049426
 21
-0.5935261
 31
0.0
  0
LINE
  5
379
  8
0
  6
CONTINUOUS
 62
     3
 10
0.9049426
 20
-0.5935261
 30
0.0
 11
0.8997883
 21
-0.5848803
 31
0.0
  0
LINE
  5
37A
  8
0
  6
CONTINUOUS
 62
     3
 10
0.8997883
 20
-0.5848803
 30
0.0
 11
0.8944472
 21
-0.5763487
 31
0.0
  0
LINE
  5
37B
  8
0
  6
CONTINUOUS
 62
     3
 10
0.8944472
 20
-0.5763487
 30
0.0
 11
0.8889129
 21
-0.5679411
 31
0.0
  0
LINE
  5
37C
  8
0
  6
CONTINUOUS
 62
     3
 10
0.8889129
 20
-0.5679411
 30
0.0
 11
0.883178
 21
-0.5596691
 31
0.0
  0
LINE
  5
37D
  8
0
  6
CONTINUOUS
 62
     3
 10
0.883178
 20
-0.5596691
 30
0.0
 11
0.877234
 21
-0.5515461
 31
0.0
  0
LINE
  5
37E
  8
0
  6
CONTINUOUS
 62
     3
 10
0.877234
 20
-0.5515461
 30
0.0
 11
0.8710705
 21
-0.5435884
 31
0.0
  0
LINE
  5
37F
  8
0
  6
CONTINUOUS
 62
     3
 10
0.8710705
 20
-0.5435884
 30
0.0
 11
0.8646752
 21
-0.5358158
 31
0.0
  0
LINE
  5
380
  8
0
  6
CONTINUOUS
 62
     3
 10
0.8646752
 20
-0.5358158
 30
0.0
 11
0.858032
 21
-0.5282541
 31
0.0
  0
LINE
  5
381
  8
0
  6
CONTINUOUS
 62
     3
 10
0.858032
 20
-0.5282541
 30
0.0
 11
0.8511197
 21
-0.5209379
 31
0.0
  0
LINE
  5
382
  8
0
  6
CONTINUOUS
 62
     3
 10
0.8511197
 20
-0.5209379
 30
0.0
 11
0.843907
 21
-0.5139179
 31
0.0
  0
LINE
  5
383
  8
0
  6
CONTINUOUS
 62
     3
 10
0.843907
 20
-0.5139179
 30
0.0
 11
0.8363406
 21
-0.5072816
 31
0.0
  0
LINE
  5
384
  8
0
  6
CONTINUOUS
 62
     3
 10
0.8363406
 20
-0.5072816
 30
0.0
 11
0.8282737
 21
-0.5012708
 31
0.0
  0
LINE
  5
385
  8
0
  6
CONTINUOUS
 62
     3
 10
0.8282737
 20
-0.5012708
 30
0.0
 11
0.8019206
 21
-0.4884222
 31
0.0
  0
LINE
  5
386
  8
0
  6
CONTINUOUS
 62
     3
 10
0.8019206
 20
-0.4884222
 30
0.0
 11
0.7830264
 21
-0.4744023
 31
0.0
  0
LINE
  5
387
  8
0
  6
CONTINUOUS
 62
     3
 10
0.7830264
 20
-0.4744023
 30
0.0
 11
0.7711501
 21
-0.4608971
 31
0.0
  0
LINE
  5
388
  8
0
  6
CONTINUOUS
 62
     3
 10
0.7711501
 20
-0.4608971
 30
0.0
 11
0.7660581
 21
-0.4489103
 31
0.0
  0
LINE
  5
389
  8
0
  6
CONTINUOUS
 62
     3
 10
0.7660581
 20
-0.4489103
 30
0.0
 11
0.7674034
 21
-0.4394089
 31
0.0
  0
LINE
  5
38A
  8
0
  6
CONTINUOUS
 62
     3
 10
0.7674034
 20
-0.4394089
 30
0.0
 11
0.8065576
 21
-0.3625643
 31
0.0
  0
LINE
  5
38B
  8
0
  6
CONTINUOUS
 62
     3
 10
0.8065576
 20
-0.3625643
 30
0.0
 11
0.8134537
 21
-0.3558911
 31
0.0
  0
LINE
  5
38C
  8
0
  6
CONTINUOUS
 62
     3
 10
0.8134537
 20
-0.3558911
 30
0.0
 11
0.8261443
 21
-0.352965
 31
0.0
  0
LINE
  5
38D
  8
0
  6
CONTINUOUS
 62
     3
 10
0.8261443
 20
-0.352965
 30
0.0
 11
0.8440509
 21
-0.354635
 31
0.0
  0
LINE
  5
38E
  8
0
  6
CONTINUOUS
 62
     3
 10
0.8440509
 20
-0.354635
 30
0.0
 11
0.866499
 21
-0.36168
 31
0.0
  0
LINE
  5
38F
  8
0
  6
CONTINUOUS
 62
     3
 10
0.866499
 20
-0.36168
 30
0.0
 11
0.8923837
 21
-0.3754479
 31
0.0
  0
LINE
  5
390
  8
0
  6
CONTINUOUS
 62
     3
 10
0.8923837
 20
-0.3754479
 30
0.0
 11
0.9019881
 21
-0.3784411
 31
0.0
  0
LINE
  5
391
  8
0
  6
CONTINUOUS
 62
     3
 10
0.9019881
 20
-0.3784411
 30
0.0
 11
0.9118044
 21
-0.3806617
 31
0.0
  0
LINE
  5
392
  8
0
  6
CONTINUOUS
 62
     3
 10
0.9118044
 20
-0.3806617
 30
0.0
 11
0.9217232
 21
-0.3823707
 31
0.0
  0
LINE
  5
393
  8
0
  6
CONTINUOUS
 62
     3
 10
0.9217232
 20
-0.3823707
 30
0.0
 11
0.9317051
 21
-0.3836625
 31
0.0
  0
LINE
  5
394
  8
0
  6
CONTINUOUS
 62
     3
 10
0.9317051
 20
-0.3836625
 30
0.0
 11
0.9417274
 21
-0.3845923
 31
0.0
  0
LINE
  5
395
  8
0
  6
CONTINUOUS
 62
     3
 10
0.9417274
 20
-0.3845923
 30
0.0
 11
0.9517746
 21
-0.3851976
 31
0.0
  0
LINE
  5
396
  8
0
  6
CONTINUOUS
 62
     3
 10
0.9517746
 20
-0.3851976
 30
0.0
 11
0.9618353
 21
-0.3855065
 31
0.0
  0
LINE
  5
397
  8
0
  6
CONTINUOUS
 62
     3
 10
0.9618353
 20
-0.3855065
 30
0.0
 11
0.9719008
 21
-0.3855408
 31
0.0
  0
LINE
  5
398
  8
0
  6
CONTINUOUS
 62
     3
 10
0.9719008
 20
-0.3855408
 30
0.0
 11
0.9819639
 21
-0.3853183
 31
0.0
  0
LINE
  5
399
  8
0
  6
CONTINUOUS
 62
     3
 10
0.9819639
 20
-0.3853183
 30
0.0
 11
0.9920188
 21
-0.3848538
 31
0.0
  0
LINE
  5
39A
  8
0
  6
CONTINUOUS
 62
     3
 10
0.9920188
 20
-0.3848538
 30
0.0
 11
1.0020604
 21
-0.38416
 31
0.0
  0
LINE
  5
39B
  8
0
  6
CONTINUOUS
 62
     3
 10
1.0020604
 20
-0.38416
 30
0.0
 11
1.0120846
 21
-0.3832481
 31
0.0
  0
LINE
  5
39C
  8
0
  6
CONTINUOUS
 62
     3
 10
1.0120846
 20
-0.3832481
 30
0.0
 11
1.0220877
 21
-0.3821276
 31
0.0
  0
LINE
  5
39D
  8
0
  6
CONTINUOUS
 62
     3
 10
1.0220877
 20
-0.3821276
 30
0.0
 11
1.0320664
 21
-0.3808072
 31
0.0
  0
LINE
  5
39E
  8
0
  6
CONTINUOUS
 62
     3
 10
1.0320664
 20
-0.3808072
 30
0.0
 11
1.0587921
 21
-0.2985539
 31
0.0
  0
LINE
  5
39F
  8
0
  6
CONTINUOUS
 62
     3
 10
1.0587921
 20
-0.2985539
 30
0.0
 11
1.0514953
 21
-0.2916204
 31
0.0
  0
LINE
  5
3A0
  8
0
  6
CONTINUOUS
 62
     3
 10
1.0514953
 20
-0.2916204
 30
0.0
 11
1.0440612
 21
-0.2848342
 31
0.0
  0
LINE
  5
3A1
  8
0
  6
CONTINUOUS
 62
     3
 10
1.0440612
 20
-0.2848342
 30
0.0
 11
1.0364875
 21
-0.2782043
 31
0.0
  0
LINE
  5
3A2
  8
0
  6
CONTINUOUS
 62
     3
 10
1.0364875
 20
-0.2782043
 30
0.0
 11
1.0287714
 21
-0.2717408
 31
0.0
  0
LINE
  5
3A3
  8
0
  6
CONTINUOUS
 62
     3
 10
1.0287714
 20
-0.2717408
 30
0.0
 11
1.0209099
 21
-0.2654549
 31
0.0
  0
LINE
  5
3A4
  8
0
  6
CONTINUOUS
 62
     3
 10
1.0209099
 20
-0.2654549
 30
0.0
 11
1.0128995
 21
-0.2593599
 31
0.0
  0
LINE
  5
3A5
  8
0
  6
CONTINUOUS
 62
     3
 10
1.0128995
 20
-0.2593599
 30
0.0
 11
1.0047362
 21
-0.2534713
 31
0.0
  0
LINE
  5
3A6
  8
0
  6
CONTINUOUS
 62
     3
 10
1.0047362
 20
-0.2534713
 30
0.0
 11
0.9964153
 21
-0.2478077
 31
0.0
  0
LINE
  5
3A7
  8
0
  6
CONTINUOUS
 62
     3
 10
0.9964153
 20
-0.2478077
 30
0.0
 11
0.9879311
 21
-0.2423918
 31
0.0
  0
LINE
  5
3A8
  8
0
  6
CONTINUOUS
 62
     3
 10
0.9879311
 20
-0.2423918
 30
0.0
 11
0.9792764
 21
-0.2372531
 31
0.0
  0
LINE
  5
3A9
  8
0
  6
CONTINUOUS
 62
     3
 10
0.9792764
 20
-0.2372531
 30
0.0
 11
0.9704416
 21
-0.2324309
 31
0.0
  0
LINE
  5
3AA
  8
0
  6
CONTINUOUS
 62
     3
 10
0.9704416
 20
-0.2324309
 30
0.0
 11
0.9614126
 21
-0.2279834
 31
0.0
  0
LINE
  5
3AB
  8
0
  6
CONTINUOUS
 62
     3
 10
0.9614126
 20
-0.2279834
 30
0.0
 11
0.9521658
 21
-0.22401
 31
0.0
  0
LINE
  5
3AC
  8
0
  6
CONTINUOUS
 62
     3
 10
0.9521658
 20
-0.22401
 30
0.0
 11
0.9426364
 21
-0.2207862
 31
0.0
  0
LINE
  5
3AD
  8
0
  6
CONTINUOUS
 62
     3
 10
0.9426364
 20
-0.2207862
 30
0.0
 11
0.9136026
 21
-0.2167101
 31
0.0
  0
LINE
  5
3AE
  8
0
  6
CONTINUOUS
 62
     3
 10
0.9136026
 20
-0.2167101
 30
0.0
 11
0.8913007
 21
-0.2092149
 31
0.0
  0
LINE
  5
3AF
  8
0
  6
CONTINUOUS
 62
     3
 10
0.8913007
 20
-0.2092149
 30
0.0
 11
0.8758324
 21
-0.2000407
 31
0.0
  0
LINE
  5
3B0
  8
0
  6
CONTINUOUS
 62
     3
 10
0.8758324
 20
-0.2000407
 30
0.0
 11
0.8672854
 21
-0.1902141
 31
0.0
  0
LINE
  5
3B1
  8
0
  6
CONTINUOUS
 62
     3
 10
0.8672854
 20
-0.1902141
 30
0.0
 11
0.8656288
 21
-0.180762
 31
0.0
  0
LINE
  5
3B2
  8
0
  6
CONTINUOUS
 62
     3
 10
0.8656288
 20
-0.180762
 30
0.0
 11
0.8791204
 21
-0.0955791
 31
0.0
  0
LINE
  5
3B3
  8
0
  6
CONTINUOUS
 62
     3
 10
3.199265764234
 20
-0.102631213569
 30
0.0
 11
3.199265764234
 21
-0.102631213569
 31
0.0
  0
LINE
  5
3B4
  8
0
  6
CONTINUOUS
 62
     3
 10
3.199265764234
 20
-0.102631213569
 30
0.0
 11
3.203762264234
 21
-0.094153713569
 31
0.0
  0
LINE
  5
3B5
  8
0
  6
CONTINUOUS
 62
     3
 10
3.203762264234
 20
-0.094153713569
 30
0.0
 11
3.214927464234
 21
-0.087449113569
 31
0.0
  0
LINE
  5
3B6
  8
0
  6
CONTINUOUS
 62
     3
 10
3.214927464234
 20
-0.087449113569
 30
0.0
 11
3.232473664234
 21
-0.083504013569
 31
0.0
  0
LINE
  5
3B7
  8
0
  6
CONTINUOUS
 62
     3
 10
3.232473664234
 20
-0.083504013569
 30
0.0
 11
3.256000164234
 21
-0.083267313569
 31
0.0
  0
LINE
  5
3B8
  8
0
  6
CONTINUOUS
 62
     3
 10
3.256000164234
 20
-0.083267313569
 30
0.0
 11
3.284872464234
 21
-0.088362613569
 31
0.0
  0
LINE
  5
3B9
  8
0
  6
CONTINUOUS
 62
     3
 10
3.284872464234
 20
-0.088362613569
 30
0.0
 11
3.294931764234
 21
-0.088241313569
 31
0.0
  0
LINE
  5
3BA
  8
0
  6
CONTINUOUS
 62
     3
 10
3.294931764234
 20
-0.088241313569
 30
0.0
 11
3.304953864234
 21
-0.087319813569
 31
0.0
  0
LINE
  5
3BB
  8
0
  6
CONTINUOUS
 62
     3
 10
3.304953864234
 20
-0.087319813569
 30
0.0
 11
3.314915264234
 21
-0.085880113569
 31
0.0
  0
LINE
  5
3BC
  8
0
  6
CONTINUOUS
 62
     3
 10
3.314915264234
 20
-0.085880113569
 30
0.0
 11
3.324807864234
 21
-0.084024113569
 31
0.0
  0
LINE
  5
3BD
  8
0
  6
CONTINUOUS
 62
     3
 10
3.324807864234
 20
-0.084024113569
 30
0.0
 11
3.334626864234
 21
-0.081811313569
 31
0.0
  0
LINE
  5
3BE
  8
0
  6
CONTINUOUS
 62
     3
 10
3.334626864234
 20
-0.081811313569
 30
0.0
 11
3.344369464234
 21
-0.079282313569
 31
0.0
  0
LINE
  5
3BF
  8
0
  6
CONTINUOUS
 62
     3
 10
3.344369464234
 20
-0.079282313569
 30
0.0
 11
3.354033164234
 21
-0.076467113569
 31
0.0
  0
LINE
  5
3C0
  8
0
  6
CONTINUOUS
 62
     3
 10
3.354033164234
 20
-0.076467113569
 30
0.0
 11
3.363616664234
 21
-0.073389313569
 31
0.0
  0
LINE
  5
3C1
  8
0
  6
CONTINUOUS
 62
     3
 10
3.363616664234
 20
-0.073389313569
 30
0.0
 11
3.373118464234
 21
-0.070068013569
 31
0.0
  0
LINE
  5
3C2
  8
0
  6
CONTINUOUS
 62
     3
 10
3.373118464234
 20
-0.070068013569
 30
0.0
 11
3.382537664234
 21
-0.066519113569
 31
0.0
  0
LINE
  5
3C3
  8
0
  6
CONTINUOUS
 62
     3
 10
3.382537664234
 20
-0.066519113569
 30
0.0
 11
3.391873464234
 21
-0.062756313569
 31
0.0
  0
LINE
  5
3C4
  8
0
  6
CONTINUOUS
 62
     3
 10
3.391873464234
 20
-0.062756313569
 30
0.0
 11
3.401125264234
 21
-0.058791313569
 31
0.0
  0
LINE
  5
3C5
  8
0
  6
CONTINUOUS
 62
     3
 10
3.401125264234
 20
-0.058791313569
 30
0.0
 11
3.410292464234
 21
-0.054634513569
 31
0.0
  0
LINE
  5
3C6
  8
0
  6
CONTINUOUS
 62
     3
 10
3.410292464234
 20
-0.054634513569
 30
0.0
 11
3.419374764234
 21
-0.050295213569
 31
0.0
  0
LINE
  5
3C7
  8
0
  6
CONTINUOUS
 62
     3
 10
3.419374764234
 20
-0.050295213569
 30
0.0
 11
3.419374764234
 21
0.036190986431
 31
0.0
  0
LINE
  5
3C8
  8
0
  6
CONTINUOUS
 62
     3
 10
3.419374764234
 20
0.036190986431
 30
0.0
 11
3.410292464234
 21
0.040530286431
 31
0.0
  0
LINE
  5
3C9
  8
0
  6
CONTINUOUS
 62
     3
 10
3.410292464234
 20
0.040530286431
 30
0.0
 11
3.401125264234
 21
0.044687086431
 31
0.0
  0
LINE
  5
3CA
  8
0
  6
CONTINUOUS
 62
     3
 10
3.401125264234
 20
0.044687086431
 30
0.0
 11
3.391873464234
 21
0.048652086431
 31
0.0
  0
LINE
  5
3CB
  8
0
  6
CONTINUOUS
 62
     3
 10
3.391873464234
 20
0.048652086431
 30
0.0
 11
3.382537664234
 21
0.052414886431
 31
0.0
  0
LINE
  5
3CC
  8
0
  6
CONTINUOUS
 62
     3
 10
3.382537664234
 20
0.052414886431
 30
0.0
 11
3.373118464234
 21
0.055963786431
 31
0.0
  0
LINE
  5
3CD
  8
0
  6
CONTINUOUS
 62
     3
 10
3.373118464234
 20
0.055963786431
 30
0.0
 11
3.363616664234
 21
0.059285086431
 31
0.0
  0
LINE
  5
3CE
  8
0
  6
CONTINUOUS
 62
     3
 10
3.363616664234
 20
0.059285086431
 30
0.0
 11
3.354033164234
 21
0.062362886431
 31
0.0
  0
LINE
  5
3CF
  8
0
  6
CONTINUOUS
 62
     3
 10
3.354033164234
 20
0.062362886431
 30
0.0
 11
3.344369464234
 21
0.065178086431
 31
0.0
  0
LINE
  5
3D0
  8
0
  6
CONTINUOUS
 62
     3
 10
3.344369464234
 20
0.065178086431
 30
0.0
 11
3.334626864234
 21
0.067707086431
 31
0.0
  0
LINE
  5
3D1
  8
0
  6
CONTINUOUS
 62
     3
 10
3.334626864234
 20
0.067707086431
 30
0.0
 11
3.324807864234
 21
0.069919886431
 31
0.0
  0
LINE
  5
3D2
  8
0
  6
CONTINUOUS
 62
     3
 10
3.324807864234
 20
0.069919886431
 30
0.0
 11
3.314915264234
 21
0.071775886431
 31
0.0
  0
LINE
  5
3D3
  8
0
  6
CONTINUOUS
 62
     3
 10
3.314915264234
 20
0.071775886431
 30
0.0
 11
3.304953864234
 21
0.073215586431
 31
0.0
  0
LINE
  5
3D4
  8
0
  6
CONTINUOUS
 62
     3
 10
3.304953864234
 20
0.073215586431
 30
0.0
 11
3.294931764234
 21
0.074137086431
 31
0.0
  0
LINE
  5
3D5
  8
0
  6
CONTINUOUS
 62
     3
 10
3.294931764234
 20
0.074137086431
 30
0.0
 11
3.284872464234
 21
0.074258386431
 31
0.0
  0
LINE
  5
3D6
  8
0
  6
CONTINUOUS
 62
     3
 10
3.284872464234
 20
0.074258386431
 30
0.0
 11
3.256000164234
 21
0.069163086431
 31
0.0
  0
LINE
  5
3D7
  8
0
  6
CONTINUOUS
 62
     3
 10
3.256000164234
 20
0.069163086431
 30
0.0
 11
3.232473664234
 21
0.069399786431
 31
0.0
  0
LINE
  5
3D8
  8
0
  6
CONTINUOUS
 62
     3
 10
3.232473664234
 20
0.069399786431
 30
0.0
 11
3.214927464234
 21
0.073344886431
 31
0.0
  0
LINE
  5
3D9
  8
0
  6
CONTINUOUS
 62
     3
 10
3.214927464234
 20
0.073344886431
 30
0.0
 11
3.203762264234
 21
0.080049486431
 31
0.0
  0
LINE
  5
3DA
  8
0
  6
CONTINUOUS
 62
     3
 10
3.203762264234
 20
0.080049486431
 30
0.0
 11
3.199265764234
 21
0.088526986431
 31
0.0
  0
LINE
  5
3DB
  8
0
  6
CONTINUOUS
 62
     3
 10
3.199265764234
 20
0.088526986431
 30
0.0
 11
3.185774164234
 21
0.173709886431
 31
0.0
  0
LINE
  5
3DC
  8
0
  6
CONTINUOUS
 62
     3
 10
3.185774164234
 20
0.173709886431
 30
0.0
 11
3.187430764234
 21
0.183161986431
 31
0.0
  0
LINE
  5
3DD
  8
0
  6
CONTINUOUS
 62
     3
 10
3.187430764234
 20
0.183161986431
 30
0.0
 11
3.195977764234
 21
0.192988586431
 31
0.0
  0
LINE
  5
3DE
  8
0
  6
CONTINUOUS
 62
     3
 10
3.195977764234
 20
0.192988586431
 30
0.0
 11
3.211446064234
 21
0.202162786431
 31
0.0
  0
LINE
  5
3DF
  8
0
  6
CONTINUOUS
 62
     3
 10
3.211446064234
 20
0.202162786431
 30
0.0
 11
3.233747964234
 21
0.209657986431
 31
0.0
  0
LINE
  5
3E0
  8
0
  6
CONTINUOUS
 62
     3
 10
3.233747964234
 20
0.209657986431
 30
0.0
 11
3.262781764234
 21
0.213734086431
 31
0.0
  0
LINE
  5
3E1
  8
0
  6
CONTINUOUS
 62
     3
 10
3.262781764234
 20
0.213734086431
 30
0.0
 11
3.272311164234
 21
0.216957886431
 31
0.0
  0
LINE
  5
3E2
  8
0
  6
CONTINUOUS
 62
     3
 10
3.272311164234
 20
0.216957886431
 30
0.0
 11
3.281557964234
 21
0.220931286431
 31
0.0
  0
LINE
  5
3E3
  8
0
  6
CONTINUOUS
 62
     3
 10
3.281557964234
 20
0.220931286431
 30
0.0
 11
3.290586964234
 21
0.225378786431
 31
0.0
  0
LINE
  5
3E4
  8
0
  6
CONTINUOUS
 62
     3
 10
3.290586964234
 20
0.225378786431
 30
0.0
 11
3.299421764234
 21
0.230200986431
 31
0.0
  0
LINE
  5
3E5
  8
0
  6
CONTINUOUS
 62
     3
 10
3.299421764234
 20
0.230200986431
 30
0.0
 11
3.308076464234
 21
0.235339686431
 31
0.0
  0
LINE
  5
3E6
  8
0
  6
CONTINUOUS
 62
     3
 10
3.308076464234
 20
0.235339686431
 30
0.0
 11
3.316560664234
 21
0.240755586431
 31
0.0
  0
LINE
  5
3E7
  8
0
  6
CONTINUOUS
 62
     3
 10
3.316560664234
 20
0.240755586431
 30
0.0
 11
3.324881564234
 21
0.246419186431
 31
0.0
  0
LINE
  5
3E8
  8
0
  6
CONTINUOUS
 62
     3
 10
3.324881564234
 20
0.246419186431
 30
0.0
 11
3.333044864234
 21
0.252307786431
 31
0.0
  0
LINE
  5
3E9
  8
0
  6
CONTINUOUS
 62
     3
 10
3.333044864234
 20
0.252307786431
 30
0.0
 11
3.341055264234
 21
0.258402786431
 31
0.0
  0
LINE
  5
3EA
  8
0
  6
CONTINUOUS
 62
     3
 10
3.341055264234
 20
0.258402786431
 30
0.0
 11
3.348916764234
 21
0.264688686431
 31
0.0
  0
LINE
  5
3EB
  8
0
  6
CONTINUOUS
 62
     3
 10
3.348916764234
 20
0.264688686431
 30
0.0
 11
3.356632864234
 21
0.271152186431
 31
0.0
  0
LINE
  5
3EC
  8
0
  6
CONTINUOUS
 62
     3
 10
3.356632864234
 20
0.271152186431
 30
0.0
 11
3.364206564234
 21
0.277782086431
 31
0.0
  0
LINE
  5
3ED
  8
0
  6
CONTINUOUS
 62
     3
 10
3.364206564234
 20
0.277782086431
 30
0.0
 11
3.371640664234
 21
0.284568286431
 31
0.0
  0
LINE
  5
3EE
  8
0
  6
CONTINUOUS
 62
     3
 10
3.371640664234
 20
0.284568286431
 30
0.0
 11
3.378937464234
 21
0.291501786431
 31
0.0
  0
LINE
  5
3EF
  8
0
  6
CONTINUOUS
 62
     3
 10
3.378937464234
 20
0.291501786431
 30
0.0
 11
3.352211764234
 21
0.373755086431
 31
0.0
  0
LINE
  5
3F0
  8
0
  6
CONTINUOUS
 62
     3
 10
3.352211764234
 20
0.373755086431
 30
0.0
 11
3.342233064234
 21
0.375075486431
 31
0.0
  0
LINE
  5
3F1
  8
0
  6
CONTINUOUS
 62
     3
 10
3.342233064234
 20
0.375075486431
 30
0.0
 11
3.332229964234
 21
0.376195986431
 31
0.0
  0
LINE
  5
3F2
  8
0
  6
CONTINUOUS
 62
     3
 10
3.332229964234
 20
0.376195986431
 30
0.0
 11
3.322205764234
 21
0.377107886431
 31
0.0
  0
LINE
  5
3F3
  8
0
  6
CONTINUOUS
 62
     3
 10
3.322205764234
 20
0.377107886431
 30
0.0
 11
3.312164164234
 21
0.377801686431
 31
0.0
  0
LINE
  5
3F4
  8
0
  6
CONTINUOUS
 62
     3
 10
3.312164164234
 20
0.377801686431
 30
0.0
 11
3.302109264234
 21
0.378266186431
 31
0.0
  0
LINE
  5
3F5
  8
0
  6
CONTINUOUS
 62
     3
 10
3.302109264234
 20
0.378266186431
 30
0.0
 11
3.292046164234
 21
0.378488686431
 31
0.0
  0
LINE
  5
3F6
  8
0
  6
CONTINUOUS
 62
     3
 10
3.292046164234
 20
0.378488686431
 30
0.0
 11
3.281980664234
 21
0.378454386431
 31
0.0
  0
LINE
  5
3F7
  8
0
  6
CONTINUOUS
 62
     3
 10
3.281980664234
 20
0.378454386431
 30
0.0
 11
3.271919964234
 21
0.378145486431
 31
0.0
  0
LINE
  5
3F8
  8
0
  6
CONTINUOUS
 62
     3
 10
3.271919964234
 20
0.378145486431
 30
0.0
 11
3.261872764234
 21
0.377540186431
 31
0.0
  0
LINE
  5
3F9
  8
0
  6
CONTINUOUS
 62
     3
 10
3.261872764234
 20
0.377540186431
 30
0.0
 11
3.251850464234
 21
0.376610386431
 31
0.0
  0
LINE
  5
3FA
  8
0
  6
CONTINUOUS
 62
     3
 10
3.251850464234
 20
0.376610386431
 30
0.0
 11
3.241868564234
 21
0.375318586431
 31
0.0
  0
LINE
  5
3FB
  8
0
  6
CONTINUOUS
 62
     3
 10
3.241868564234
 20
0.375318586431
 30
0.0
 11
3.231949764234
 21
0.373609586431
 31
0.0
  0
LINE
  5
3FC
  8
0
  6
CONTINUOUS
 62
     3
 10
3.231949764234
 20
0.373609586431
 30
0.0
 11
3.222133464234
 21
0.371388986431
 31
0.0
  0
LINE
  5
3FD
  8
0
  6
CONTINUOUS
 62
     3
 10
3.222133464234
 20
0.371388986431
 30
0.0
 11
3.212529064234
 21
0.368395786431
 31
0.0
  0
LINE
  5
3FE
  8
0
  6
CONTINUOUS
 62
     3
 10
3.212529064234
 20
0.368395786431
 30
0.0
 11
3.186644364234
 21
0.354627886431
 31
0.0
  0
LINE
  5
3FF
  8
0
  6
CONTINUOUS
 62
     3
 10
3.186644364234
 20
0.354627886431
 30
0.0
 11
3.164196264234
 21
0.347582886431
 31
0.0
  0
LINE
  5
400
  8
0
  6
CONTINUOUS
 62
     3
 10
3.164196264234
 20
0.347582886431
 30
0.0
 11
3.146289664234
 21
0.345912886431
 31
0.0
  0
LINE
  5
401
  8
0
  6
CONTINUOUS
 62
     3
 10
3.146289664234
 20
0.345912886431
 30
0.0
 11
3.133599064234
 21
0.348838986431
 31
0.0
  0
LINE
  5
402
  8
0
  6
CONTINUOUS
 62
     3
 10
3.133599064234
 20
0.348838986431
 30
0.0
 11
3.126702964234
 21
0.355512186431
 31
0.0
  0
LINE
  5
403
  8
0
  6
CONTINUOUS
 62
     3
 10
3.126702964234
 20
0.355512186431
 30
0.0
 11
3.087548764234
 21
0.432356786431
 31
0.0
  0
LINE
  5
404
  8
0
  6
CONTINUOUS
 62
     3
 10
3.087548764234
 20
0.432356786431
 30
0.0
 11
3.086203464234
 21
0.441858186431
 31
0.0
  0
LINE
  5
405
  8
0
  6
CONTINUOUS
 62
     3
 10
3.086203464234
 20
0.441858186431
 30
0.0
 11
3.091295464234
 21
0.453844986431
 31
0.0
  0
LINE
  5
406
  8
0
  6
CONTINUOUS
 62
     3
 10
3.091295464234
 20
0.453844986431
 30
0.0
 11
3.103171764234
 21
0.467350186431
 31
0.0
  0
LINE
  5
407
  8
0
  6
CONTINUOUS
 62
     3
 10
3.103171764234
 20
0.467350186431
 30
0.0
 11
3.122065964234
 21
0.481370086431
 31
0.0
  0
LINE
  5
408
  8
0
  6
CONTINUOUS
 62
     3
 10
3.122065964234
 20
0.481370086431
 30
0.0
 11
3.148419064234
 21
0.494218686431
 31
0.0
  0
LINE
  5
409
  8
0
  6
CONTINUOUS
 62
     3
 10
3.148419064234
 20
0.494218686431
 30
0.0
 11
3.156485964234
 21
0.500229486431
 31
0.0
  0
LINE
  5
40A
  8
0
  6
CONTINUOUS
 62
     3
 10
3.156485964234
 20
0.500229486431
 30
0.0
 11
3.164052364234
 21
0.506865786431
 31
0.0
  0
LINE
  5
40B
  8
0
  6
CONTINUOUS
 62
     3
 10
3.164052364234
 20
0.506865786431
 30
0.0
 11
3.171265064234
 21
0.513885786431
 31
0.0
  0
LINE
  5
40C
  8
0
  6
CONTINUOUS
 62
     3
 10
3.171265064234
 20
0.513885786431
 30
0.0
 11
3.178177364234
 21
0.521201986431
 31
0.0
  0
LINE
  5
40D
  8
0
  6
CONTINUOUS
 62
     3
 10
3.178177364234
 20
0.521201986431
 30
0.0
 11
3.184820564234
 21
0.528763686431
 31
0.0
  0
LINE
  5
40E
  8
0
  6
CONTINUOUS
 62
     3
 10
3.184820564234
 20
0.528763686431
 30
0.0
 11
3.191215864234
 21
0.536536286431
 31
0.0
  0
LINE
  5
40F
  8
0
  6
CONTINUOUS
 62
     3
 10
3.191215864234
 20
0.536536286431
 30
0.0
 11
3.197379364234
 21
0.544493986431
 31
0.0
  0
LINE
  5
410
  8
0
  6
CONTINUOUS
 62
     3
 10
3.197379364234
 20
0.544493986431
 30
0.0
 11
3.203323364234
 21
0.552616986431
 31
0.0
  0
LINE
  5
411
  8
0
  6
CONTINUOUS
 62
     3
 10
3.203323364234
 20
0.552616986431
 30
0.0
 11
3.209058264234
 21
0.560888986431
 31
0.0
  0
LINE
  5
412
  8
0
  6
CONTINUOUS
 62
     3
 10
3.209058264234
 20
0.560888986431
 30
0.0
 11
3.214592564234
 21
0.569296586431
 31
0.0
  0
LINE
  5
413
  8
0
  6
CONTINUOUS
 62
     3
 10
3.214592564234
 20
0.569296586431
 30
0.0
 11
3.219933664234
 21
0.577828186431
 31
0.0
  0
LINE
  5
414
  8
0
  6
CONTINUOUS
 62
     3
 10
3.219933664234
 20
0.577828186431
 30
0.0
 11
3.225087964234
 21
0.586473986431
 31
0.0
  0
LINE
  5
415
  8
0
  6
CONTINUOUS
 62
     3
 10
3.225087964234
 20
0.586473986431
 30
0.0
 11
3.230061164234
 21
0.595225286431
 31
0.0
  0
LINE
  5
416
  8
0
  6
CONTINUOUS
 62
     3
 10
3.230061164234
 20
0.595225286431
 30
0.0
 11
3.234858264234
 21
0.604074286431
 31
0.0
  0
LINE
  5
417
  8
0
  6
CONTINUOUS
 62
     3
 10
3.234858264234
 20
0.604074286431
 30
0.0
 11
3.184022964234
 21
0.674043086431
 31
0.0
  0
LINE
  5
418
  8
0
  6
CONTINUOUS
 62
     3
 10
3.184022964234
 20
0.674043086431
 30
0.0
 11
3.174124664234
 21
0.672215286431
 31
0.0
  0
LINE
  5
419
  8
0
  6
CONTINUOUS
 62
     3
 10
3.174124664234
 20
0.672215286431
 30
0.0
 11
3.164264864234
 21
0.670189786431
 31
0.0
  0
LINE
  5
41A
  8
0
  6
CONTINUOUS
 62
     3
 10
3.164264864234
 20
0.670189786431
 30
0.0
 11
3.154449464234
 21
0.667959486431
 31
0.0
  0
LINE
  5
41B
  8
0
  6
CONTINUOUS
 62
     3
 10
3.154449464234
 20
0.667959486431
 30
0.0
 11
3.144684864234
 21
0.665516186431
 31
0.0
  0
LINE
  5
41C
  8
0
  6
CONTINUOUS
 62
     3
 10
3.144684864234
 20
0.665516186431
 30
0.0
 11
3.134978664234
 21
0.662850886431
 31
0.0
  0
LINE
  5
41D
  8
0
  6
CONTINUOUS
 62
     3
 10
3.134978664234
 20
0.662850886431
 30
0.0
 11
3.125339264234
 21
0.659952886431
 31
0.0
  0
LINE
  5
41E
  8
0
  6
CONTINUOUS
 62
     3
 10
3.125339264234
 20
0.659952886431
 30
0.0
 11
3.115777064234
 21
0.656809786431
 31
0.0
  0
LINE
  5
41F
  8
0
  6
CONTINUOUS
 62
     3
 10
3.115777064234
 20
0.656809786431
 30
0.0
 11
3.106304164234
 21
0.653407086431
 31
0.0
  0
LINE
  5
420
  8
0
  6
CONTINUOUS
 62
     3
 10
3.106304164234
 20
0.653407086431
 30
0.0
 11
3.096935864234
 21
0.649726686431
 31
0.0
  0
LINE
  5
421
  8
0
  6
CONTINUOUS
 62
     3
 10
3.096935864234
 20
0.649726686431
 30
0.0
 11
3.087691364234
 21
0.645745286431
 31
0.0
  0
LINE
  5
422
  8
0
  6
CONTINUOUS
 62
     3
 10
3.087691364234
 20
0.645745286431
 30
0.0
 11
3.078597164234
 21
0.641432186431
 31
0.0
  0
LINE
  5
423
  8
0
  6
CONTINUOUS
 62
     3
 10
3.078597164234
 20
0.641432186431
 30
0.0
 11
3.069691964234
 21
0.636741686431
 31
0.0
  0
LINE
  5
424
  8
0
  6
CONTINUOUS
 62
     3
 10
3.069691964234
 20
0.636741686431
 30
0.0
 11
3.061042264234
 21
0.631596386431
 31
0.0
  0
LINE
  5
425
  8
0
  6
CONTINUOUS
 62
     3
 10
3.061042264234
 20
0.631596386431
 30
0.0
 11
3.052832964234
 21
0.625781786431
 31
0.0
  0
LINE
  5
426
  8
0
  6
CONTINUOUS
 62
     3
 10
3.052832964234
 20
0.625781786431
 30
0.0
 11
3.032469564234
 21
0.604688886431
 31
0.0
  0
LINE
  5
427
  8
0
  6
CONTINUOUS
 62
     3
 10
3.032469564234
 20
0.604688886431
 30
0.0
 11
3.013297164234
 21
0.591051886431
 31
0.0
  0
LINE
  5
428
  8
0
  6
CONTINUOUS
 62
     3
 10
3.013297164234
 20
0.591051886431
 30
0.0
 11
2.996783064234
 21
0.583930186431
 31
0.0
  0
LINE
  5
429
  8
0
  6
CONTINUOUS
 62
     3
 10
2.996783064234
 20
0.583930186431
 30
0.0
 11
2.983809364234
 21
0.582791486431
 31
0.0
  0
LINE
  5
42A
  8
0
  6
CONTINUOUS
 62
     3
 10
2.983809364234
 20
0.582791486431
 30
0.0
 11
2.975188764234
 21
0.587007086431
 31
0.0
  0
LINE
  5
42B
  8
0
  6
CONTINUOUS
 62
     3
 10
2.975188764234
 20
0.587007086431
 30
0.0
 11
2.914204564234
 21
0.647991286431
 31
0.0
  0
LINE
  5
42C
  8
0
  6
CONTINUOUS
 62
     3
 10
2.914204564234
 20
0.647991286431
 30
0.0
 11
2.909988964234
 21
0.656611886431
 31
0.0
  0
LINE
  5
42D
  8
0
  6
CONTINUOUS
 62
     3
 10
2.909988964234
 20
0.656611886431
 30
0.0
 11
2.911127664234
 21
0.669585586431
 31
0.0
  0
LINE
  5
42E
  8
0
  6
CONTINUOUS
 62
     3
 10
2.911127664234
 20
0.669585586431
 30
0.0
 11
2.918249364234
 21
0.686099686431
 31
0.0
  0
LINE
  5
42F
  8
0
  6
CONTINUOUS
 62
     3
 10
2.918249364234
 20
0.686099686431
 30
0.0
 11
2.931886364234
 21
0.705272086431
 31
0.0
  0
LINE
  5
430
  8
0
  6
CONTINUOUS
 62
     3
 10
2.931886364234
 20
0.705272086431
 30
0.0
 11
2.952979264234
 21
0.725635486431
 31
0.0
  0
LINE
  5
431
  8
0
  6
CONTINUOUS
 62
     3
 10
2.952979264234
 20
0.725635486431
 30
0.0
 11
2.958793864234
 21
0.733844786431
 31
0.0
  0
LINE
  5
432
  8
0
  6
CONTINUOUS
 62
     3
 10
2.958793864234
 20
0.733844786431
 30
0.0
 11
2.963939164234
 21
0.742494486431
 31
0.0
  0
LINE
  5
433
  8
0
  6
CONTINUOUS
 62
     3
 10
2.963939164234
 20
0.742494486431
 30
0.0
 11
2.968629664234
 21
0.751399686431
 31
0.0
  0
LINE
  5
434
  8
0
  6
CONTINUOUS
 62
     3
 10
2.968629664234
 20
0.751399686431
 30
0.0
 11
2.972942764234
 21
0.760493886431
 31
0.0
  0
LINE
  5
435
  8
0
  6
CONTINUOUS
 62
     3
 10
2.972942764234
 20
0.760493886431
 30
0.0
 11
2.976924164234
 21
0.769738386431
 31
0.0
  0
LINE
  5
436
  8
0
  6
CONTINUOUS
 62
     3
 10
2.976924164234
 20
0.769738386431
 30
0.0
 11
2.980604564234
 21
0.779106686431
 31
0.0
  0
LINE
  5
437
  8
0
  6
CONTINUOUS
 62
     3
 10
2.980604564234
 20
0.779106686431
 30
0.0
 11
2.984007264234
 21
0.788579586431
 31
0.0
  0
LINE
  5
438
  8
0
  6
CONTINUOUS
 62
     3
 10
2.984007264234
 20
0.788579586431
 30
0.0
 11
2.987150364234
 21
0.798141786431
 31
0.0
  0
LINE
  5
439
  8
0
  6
CONTINUOUS
 62
     3
 10
2.987150364234
 20
0.798141786431
 30
0.0
 11
2.990048364234
 21
0.807781186431
 31
0.0
  0
LINE
  5
43A
  8
0
  6
CONTINUOUS
 62
     3
 10
2.990048364234
 20
0.807781186431
 30
0.0
 11
2.992713664234
 21
0.817487386431
 31
0.0
  0
LINE
  5
43B
  8
0
  6
CONTINUOUS
 62
     3
 10
2.992713664234
 20
0.817487386431
 30
0.0
 11
2.995156964234
 21
0.827251986431
 31
0.0
  0
LINE
  5
43C
  8
0
  6
CONTINUOUS
 62
     3
 10
2.995156964234
 20
0.827251986431
 30
0.0
 11
2.997387264234
 21
0.837067386431
 31
0.0
  0
LINE
  5
43D
  8
0
  6
CONTINUOUS
 62
     3
 10
2.997387264234
 20
0.837067386431
 30
0.0
 11
2.999412764234
 21
0.846927186431
 31
0.0
  0
LINE
  5
43E
  8
0
  6
CONTINUOUS
 62
     3
 10
2.999412764234
 20
0.846927186431
 30
0.0
 11
3.001240564234
 21
0.856825486431
 31
0.0
  0
LINE
  5
43F
  8
0
  6
CONTINUOUS
 62
     3
 10
3.001240564234
 20
0.856825486431
 30
0.0
 11
2.931271764234
 21
0.907660786431
 31
0.0
  0
LINE
  5
440
  8
0
  6
CONTINUOUS
 62
     3
 10
2.931271764234
 20
0.907660786431
 30
0.0
 11
2.922422764234
 21
0.902863686431
 31
0.0
  0
LINE
  5
441
  8
0
  6
CONTINUOUS
 62
     3
 10
2.922422764234
 20
0.902863686431
 30
0.0
 11
2.913671464234
 21
0.897890486431
 31
0.0
  0
LINE
  5
442
  8
0
  6
CONTINUOUS
 62
     3
 10
2.913671464234
 20
0.897890486431
 30
0.0
 11
2.905025664234
 21
0.892736186431
 31
0.0
  0
LINE
  5
443
  8
0
  6
CONTINUOUS
 62
     3
 10
2.905025664234
 20
0.892736186431
 30
0.0
 11
2.896494064234
 21
0.887395086431
 31
0.0
  0
LINE
  5
444
  8
0
  6
CONTINUOUS
 62
     3
 10
2.896494064234
 20
0.887395086431
 30
0.0
 11
2.888086464234
 21
0.881860786431
 31
0.0
  0
LINE
  5
445
  8
0
  6
CONTINUOUS
 62
     3
 10
2.888086464234
 20
0.881860786431
 30
0.0
 11
2.879814464234
 21
0.876125886431
 31
0.0
  0
LINE
  5
446
  8
0
  6
CONTINUOUS
 62
     3
 10
2.879814464234
 20
0.876125886431
 30
0.0
 11
2.871691464234
 21
0.870181886431
 31
0.0
  0
LINE
  5
447
  8
0
  6
CONTINUOUS
 62
     3
 10
2.871691464234
 20
0.870181886431
 30
0.0
 11
2.863733764234
 21
0.864018386431
 31
0.0
  0
LINE
  5
448
  8
0
  6
CONTINUOUS
 62
     3
 10
2.863733764234
 20
0.864018386431
 30
0.0
 11
2.855961164234
 21
0.857623086431
 31
0.0
  0
LINE
  5
449
  8
0
  6
CONTINUOUS
 62
     3
 10
2.855961164234
 20
0.857623086431
 30
0.0
 11
2.848399464234
 21
0.850979886431
 31
0.0
  0
LINE
  5
44A
  8
0
  6
CONTINUOUS
 62
     3
 10
2.848399464234
 20
0.850979886431
 30
0.0
 11
2.841083264234
 21
0.844067586431
 31
0.0
  0
LINE
  5
44B
  8
0
  6
CONTINUOUS
 62
     3
 10
2.841083264234
 20
0.844067586431
 30
0.0
 11
2.834063264234
 21
0.836854886431
 31
0.0
  0
LINE
  5
44C
  8
0
  6
CONTINUOUS
 62
     3
 10
2.834063264234
 20
0.836854886431
 30
0.0
 11
2.827426964234
 21
0.829288486431
 31
0.0
  0
LINE
  5
44D
  8
0
  6
CONTINUOUS
 62
     3
 10
2.827426964234
 20
0.829288486431
 30
0.0
 11
2.821416164234
 21
0.821221586431
 31
0.0
  0
LINE
  5
44E
  8
0
  6
CONTINUOUS
 62
     3
 10
2.821416164234
 20
0.821221586431
 30
0.0
 11
2.808567564234
 21
0.794868486431
 31
0.0
  0
LINE
  5
44F
  8
0
  6
CONTINUOUS
 62
     3
 10
2.808567564234
 20
0.794868486431
 30
0.0
 11
2.794547664234
 21
0.775974286431
 31
0.0
  0
LINE
  5
450
  8
0
  6
CONTINUOUS
 62
     3
 10
2.794547664234
 20
0.775974286431
 30
0.0
 11
2.781042464234
 21
0.764097986431
 31
0.0
  0
LINE
  5
451
  8
0
  6
CONTINUOUS
 62
     3
 10
2.781042464234
 20
0.764097986431
 30
0.0
 11
2.769055664234
 21
0.759005986431
 31
0.0
  0
LINE
  5
452
  8
0
  6
CONTINUOUS
 62
     3
 10
2.769055664234
 20
0.759005986431
 30
0.0
 11
2.759554264234
 21
0.760351286431
 31
0.0
  0
LINE
  5
453
  8
0
  6
CONTINUOUS
 62
     3
 10
2.759554264234
 20
0.760351286431
 30
0.0
 11
2.682709664234
 21
0.799505486431
 31
0.0
  0
LINE
  5
454
  8
0
  6
CONTINUOUS
 62
     3
 10
2.682709664234
 20
0.799505486431
 30
0.0
 11
2.676036464234
 21
0.806401586431
 31
0.0
  0
LINE
  5
455
  8
0
  6
CONTINUOUS
 62
     3
 10
2.676036464234
 20
0.806401586431
 30
0.0
 11
2.673110364234
 21
0.819092186431
 31
0.0
  0
LINE
  5
456
  8
0
  6
CONTINUOUS
 62
     3
 10
2.673110364234
 20
0.819092186431
 30
0.0
 11
2.674780364234
 21
0.836998786431
 31
0.0
  0
LINE
  5
457
  8
0
  6
CONTINUOUS
 62
     3
 10
2.674780364234
 20
0.836998786431
 30
0.0
 11
2.681825364234
 21
0.859446886431
 31
0.0
  0
LINE
  5
458
  8
0
  6
CONTINUOUS
 62
     3
 10
2.681825364234
 20
0.859446886431
 30
0.0
 11
2.695593264234
 21
0.885331586431
 31
0.0
  0
LINE
  5
459
  8
0
  6
CONTINUOUS
 62
     3
 10
2.695593264234
 20
0.885331586431
 30
0.0
 11
2.698586464234
 21
0.894935986431
 31
0.0
  0
LINE
  5
45A
  8
0
  6
CONTINUOUS
 62
     3
 10
2.698586464234
 20
0.894935986431
 30
0.0
 11
2.700807064234
 21
0.904752286431
 31
0.0
  0
LINE
  5
45B
  8
0
  6
CONTINUOUS
 62
     3
 10
2.700807064234
 20
0.904752286431
 30
0.0
 11
2.702516064234
 21
0.914671086431
 31
0.0
  0
LINE
  5
45C
  8
0
  6
CONTINUOUS
 62
     3
 10
2.702516064234
 20
0.914671086431
 30
0.0
 11
2.703807864234
 21
0.924652986431
 31
0.0
  0
LINE
  5
45D
  8
0
  6
CONTINUOUS
 62
     3
 10
2.703807864234
 20
0.924652986431
 30
0.0
 11
2.704737664234
 21
0.934675286431
 31
0.0
  0
LINE
  5
45E
  8
0
  6
CONTINUOUS
 62
     3
 10
2.704737664234
 20
0.934675286431
 30
0.0
 11
2.705342964234
 21
0.944722486431
 31
0.0
  0
LINE
  5
45F
  8
0
  6
CONTINUOUS
 62
     3
 10
2.705342964234
 20
0.944722486431
 30
0.0
 11
2.705651864234
 21
0.954783186431
 31
0.0
  0
LINE
  5
460
  8
0
  6
CONTINUOUS
 62
     3
 10
2.705651864234
 20
0.954783186431
 30
0.0
 11
2.705686164234
 21
0.964848686431
 31
0.0
  0
LINE
  5
461
  8
0
  6
CONTINUOUS
 62
     3
 10
2.705686164234
 20
0.964848686431
 30
0.0
 11
2.705463664234
 21
0.974911786431
 31
0.0
  0
LINE
  5
462
  8
0
  6
CONTINUOUS
 62
     3
 10
2.705463664234
 20
0.974911786431
 30
0.0
 11
2.704999164234
 21
0.984966686431
 31
0.0
  0
LINE
  5
463
  8
0
  6
CONTINUOUS
 62
     3
 10
2.704999164234
 20
0.984966686431
 30
0.0
 11
2.704305364234
 21
0.995008286431
 31
0.0
  0
LINE
  5
464
  8
0
  6
CONTINUOUS
 62
     3
 10
2.704305364234
 20
0.995008286431
 30
0.0
 11
2.703393464234
 21
1.005032486431
 31
0.0
  0
LINE
  5
465
  8
0
  6
CONTINUOUS
 62
     3
 10
2.703393464234
 20
1.005032486431
 30
0.0
 11
2.702272964234
 21
1.015035586431
 31
0.0
  0
LINE
  5
466
  8
0
  6
CONTINUOUS
 62
     3
 10
2.702272964234
 20
1.015035586431
 30
0.0
 11
2.700952564234
 21
1.025014286431
 31
0.0
  0
LINE
  5
467
  8
0
  6
CONTINUOUS
 62
     3
 10
2.700952564234
 20
1.025014286431
 30
0.0
 11
2.618699264234
 21
1.051739986431
 31
0.0
  0
LINE
  5
468
  8
0
  6
CONTINUOUS
 62
     3
 10
2.618699264234
 20
1.051739986431
 30
0.0
 11
2.611765764234
 21
1.044443186431
 31
0.0
  0
LINE
  5
469
  8
0
  6
CONTINUOUS
 62
     3
 10
2.611765764234
 20
1.044443186431
 30
0.0
 11
2.604979564234
 21
1.037009086431
 31
0.0
  0
LINE
  5
46A
  8
0
  6
CONTINUOUS
 62
     3
 10
2.604979564234
 20
1.037009086431
 30
0.0
 11
2.598349664234
 21
1.029435386431
 31
0.0
  0
LINE
  5
46B
  8
0
  6
CONTINUOUS
 62
     3
 10
2.598349664234
 20
1.029435386431
 30
0.0
 11
2.591886164234
 21
1.021719286431
 31
0.0
  0
LINE
  5
46C
  8
0
  6
CONTINUOUS
 62
     3
 10
2.591886164234
 20
1.021719286431
 30
0.0
 11
2.585600264234
 21
1.013857786431
 31
0.0
  0
LINE
  5
46D
  8
0
  6
CONTINUOUS
 62
     3
 10
2.585600264234
 20
1.013857786431
 30
0.0
 11
2.579505264234
 21
1.005847386431
 31
0.0
  0
LINE
  5
46E
  8
0
  6
CONTINUOUS
 62
     3
 10
2.579505264234
 20
1.005847386431
 30
0.0
 11
2.573616664234
 21
0.997684086431
 31
0.0
  0
LINE
  5
46F
  8
0
  6
CONTINUOUS
 62
     3
 10
2.573616664234
 20
0.997684086431
 30
0.0
 11
2.567953064234
 21
0.989363186431
 31
0.0
  0
LINE
  5
470
  8
0
  6
CONTINUOUS
 62
     3
 10
2.567953064234
 20
0.989363186431
 30
0.0
 11
2.562537164234
 21
0.980878986431
 31
0.0
  0
LINE
  5
471
  8
0
  6
CONTINUOUS
 62
     3
 10
2.562537164234
 20
0.980878986431
 30
0.0
 11
2.557398464234
 21
0.972224286431
 31
0.0
  0
LINE
  5
472
  8
0
  6
CONTINUOUS
 62
     3
 10
2.557398464234
 20
0.972224286431
 30
0.0
 11
2.552576264234
 21
0.963389486431
 31
0.0
  0
LINE
  5
473
  8
0
  6
CONTINUOUS
 62
     3
 10
2.552576264234
 20
0.963389486431
 30
0.0
 11
2.548128764234
 21
0.954360486431
 31
0.0
  0
LINE
  5
474
  8
0
  6
CONTINUOUS
 62
     3
 10
2.548128764234
 20
0.954360486431
 30
0.0
 11
2.544155364234
 21
0.945113686431
 31
0.0
  0
LINE
  5
475
  8
0
  6
CONTINUOUS
 62
     3
 10
2.544155364234
 20
0.945113686431
 30
0.0
 11
2.540931564234
 21
0.935584286431
 31
0.0
  0
LINE
  5
476
  8
0
  6
CONTINUOUS
 62
     3
 10
2.540931564234
 20
0.935584286431
 30
0.0
 11
2.536855464234
 21
0.906550486431
 31
0.0
  0
LINE
  5
477
  8
0
  6
CONTINUOUS
 62
     3
 10
2.536855464234
 20
0.906550486431
 30
0.0
 11
2.529360264234
 21
0.884248586431
 31
0.0
  0
LINE
  5
478
  8
0
  6
CONTINUOUS
 62
     3
 10
2.529360264234
 20
0.884248586431
 30
0.0
 11
2.520186064234
 21
0.868780286431
 31
0.0
  0
LINE
  5
479
  8
0
  6
CONTINUOUS
 62
     3
 10
2.520186064234
 20
0.868780286431
 30
0.0
 11
2.510359464234
 21
0.860233286431
 31
0.0
  0
LINE
  5
47A
  8
0
  6
CONTINUOUS
 62
     3
 10
2.510359464234
 20
0.860233286431
 30
0.0
 11
2.500907364234
 21
0.858576686431
 31
0.0
  0
LINE
  5
47B
  8
0
  6
CONTINUOUS
 62
     3
 10
2.500907364234
 20
0.858576686431
 30
0.0
 11
2.415724464234
 21
0.872068286431
 31
0.0
  0
LINE
  5
47C
  8
0
  6
CONTINUOUS
 62
     3
 10
2.415724464234
 20
0.872068286431
 30
0.0
 11
2.407246964234
 21
0.876564786431
 31
0.0
  0
LINE
  5
47D
  8
0
  6
CONTINUOUS
 62
     3
 10
2.407246964234
 20
0.876564786431
 30
0.0
 11
2.400542364234
 21
0.887729986431
 31
0.0
  0
LINE
  5
47E
  8
0
  6
CONTINUOUS
 62
     3
 10
2.400542364234
 20
0.887729986431
 30
0.0
 11
2.396597264234
 21
0.905276186431
 31
0.0
  0
LINE
  5
47F
  8
0
  6
CONTINUOUS
 62
     3
 10
2.396597264234
 20
0.905276186431
 30
0.0
 11
2.396360564234
 21
0.928802686431
 31
0.0
  0
LINE
  5
480
  8
0
  6
CONTINUOUS
 62
     3
 10
2.396360564234
 20
0.928802686431
 30
0.0
 11
2.401455864234
 21
0.957674986431
 31
0.0
  0
LINE
  5
481
  8
0
  6
CONTINUOUS
 62
     3
 10
2.401455864234
 20
0.957674986431
 30
0.0
 11
2.401334564234
 21
0.967734286431
 31
0.0
  0
LINE
  5
482
  8
0
  6
CONTINUOUS
 62
     3
 10
2.401334564234
 20
0.967734286431
 30
0.0
 11
2.400413064234
 21
0.977756386431
 31
0.0
  0
LINE
  5
483
  8
0
  6
CONTINUOUS
 62
     3
 10
2.400413064234
 20
0.977756386431
 30
0.0
 11
2.398973364234
 21
0.987717786431
 31
0.0
  0
LINE
  5
484
  8
0
  6
CONTINUOUS
 62
     3
 10
2.398973364234
 20
0.987717786431
 30
0.0
 11
2.397117364234
 21
0.997610386431
 31
0.0
  0
LINE
  5
485
  8
0
  6
CONTINUOUS
 62
     3
 10
2.397117364234
 20
0.997610386431
 30
0.0
 11
2.394904564234
 21
1.007429386431
 31
0.0
  0
LINE
  5
486
  8
0
  6
CONTINUOUS
 62
     3
 10
2.394904564234
 20
1.007429386431
 30
0.0
 11
2.392375564234
 21
1.017171986431
 31
0.0
  0
LINE
  5
487
  8
0
  6
CONTINUOUS
 62
     3
 10
2.392375564234
 20
1.017171986431
 30
0.0
 11
2.389560364234
 21
1.026835686431
 31
0.0
  0
LINE
  5
488
  8
0
  6
CONTINUOUS
 62
     3
 10
2.389560364234
 20
1.026835686431
 30
0.0
 11
2.386482564234
 21
1.036419186431
 31
0.0
  0
LINE
  5
489
  8
0
  6
CONTINUOUS
 62
     3
 10
2.386482564234
 20
1.036419186431
 30
0.0
 11
2.383161264234
 21
1.045920986431
 31
0.0
  0
LINE
  5
48A
  8
0
  6
CONTINUOUS
 62
     3
 10
2.383161264234
 20
1.045920986431
 30
0.0
 11
2.379612364234
 21
1.055340186431
 31
0.0
  0
LINE
  5
48B
  8
0
  6
CONTINUOUS
 62
     3
 10
2.379612364234
 20
1.055340186431
 30
0.0
 11
2.375849564234
 21
1.064675986431
 31
0.0
  0
LINE
  5
48C
  8
0
  6
CONTINUOUS
 62
     3
 10
2.375849564234
 20
1.064675986431
 30
0.0
 11
2.371884564234
 21
1.073927786431
 31
0.0
  0
LINE
  5
48D
  8
0
  6
CONTINUOUS
 62
     3
 10
2.371884564234
 20
1.073927786431
 30
0.0
 11
2.367727764234
 21
1.083094986431
 31
0.0
  0
LINE
  5
48E
  8
0
  6
CONTINUOUS
 62
     3
 10
2.367727764234
 20
1.083094986431
 30
0.0
 11
2.363388464234
 21
1.092177286431
 31
0.0
  0
LINE
  5
48F
  8
0
  6
CONTINUOUS
 62
     3
 10
2.363388464234
 20
1.092177286431
 30
0.0
 11
2.276902264234
 21
1.092177286431
 31
0.0
  0
LINE
  5
490
  8
0
  6
CONTINUOUS
 62
     3
 10
2.276902264234
 20
1.092177286431
 30
0.0
 11
2.272562964234
 21
1.083094986431
 31
0.0
  0
LINE
  5
491
  8
0
  6
CONTINUOUS
 62
     3
 10
2.272562964234
 20
1.083094986431
 30
0.0
 11
2.268406164234
 21
1.073927786431
 31
0.0
  0
LINE
  5
492
  8
0
  6
CONTINUOUS
 62
     3
 10
2.268406164234
 20
1.073927786431
 30
0.0
 11
2.264441164234
 21
1.064675986431
 31
0.0
  0
LINE
  5
493
  8
0
  6
CONTINUOUS
 62
     3
 10
2.264441164234
 20
1.064675986431
 30
0.0
 11
2.260678364234
 21
1.055340186431
 31
0.0
  0
LINE
  5
494
  8
0
  6
CONTINUOUS
 62
     3
 10
2.260678364234
 20
1.055340186431
 30
0.0
 11
2.257129464234
 21
1.045920986431
 31
0.0
  0
LINE
  5
495
  8
0
  6
CONTINUOUS
 62
     3
 10
2.257129464234
 20
1.045920986431
 30
0.0
 11
2.253808164234
 21
1.036419186431
 31
0.0
  0
LINE
  5
496
  8
0
  6
CONTINUOUS
 62
     3
 10
2.253808164234
 20
1.036419186431
 30
0.0
 11
2.250730364234
 21
1.026835686431
 31
0.0
  0
LINE
  5
497
  8
0
  6
CONTINUOUS
 62
     3
 10
2.250730364234
 20
1.026835686431
 30
0.0
 11
2.247915164234
 21
1.017171986431
 31
0.0
  0
LINE
  5
498
  8
0
  6
CONTINUOUS
 62
     3
 10
2.247915164234
 20
1.017171986431
 30
0.0
 11
2.245386164234
 21
1.007429386431
 31
0.0
  0
LINE
  5
499
  8
0
  6
CONTINUOUS
 62
     3
 10
2.245386164234
 20
1.007429386431
 30
0.0
 11
2.243173364234
 21
0.997610386431
 31
0.0
  0
LINE
  5
49A
  8
0
  6
CONTINUOUS
 62
     3
 10
2.243173364234
 20
0.997610386431
 30
0.0
 11
2.241317364234
 21
0.987717786431
 31
0.0
  0
LINE
  5
49B
  8
0
  6
CONTINUOUS
 62
     3
 10
2.241317364234
 20
0.987717786431
 30
0.0
 11
2.239877664234
 21
0.977756386431
 31
0.0
  0
LINE
  5
49C
  8
0
  6
CONTINUOUS
 62
     3
 10
2.239877664234
 20
0.977756386431
 30
0.0
 11
2.238956164234
 21
0.967734286431
 31
0.0
  0
LINE
  5
49D
  8
0
  6
CONTINUOUS
 62
     3
 10
2.238956164234
 20
0.967734286431
 30
0.0
 11
2.238834864234
 21
0.957674986431
 31
0.0
  0
LINE
  5
49E
  8
0
  6
CONTINUOUS
 62
     3
 10
2.238834864234
 20
0.957674986431
 30
0.0
 11
2.243930164234
 21
0.928802686431
 31
0.0
  0
LINE
  5
49F
  8
0
  6
CONTINUOUS
 62
     3
 10
2.243930164234
 20
0.928802686431
 30
0.0
 11
2.243693464234
 21
0.905276186431
 31
0.0
  0
LINE
  5
4A0
  8
0
  6
CONTINUOUS
 62
     3
 10
2.243693464234
 20
0.905276186431
 30
0.0
 11
2.239748364234
 21
0.887729986431
 31
0.0
  0
LINE
  5
4A1
  8
0
  6
CONTINUOUS
 62
     3
 10
2.239748364234
 20
0.887729986431
 30
0.0
 11
2.233043764234
 21
0.876564786431
 31
0.0
  0
LINE
  5
4A2
  8
0
  6
CONTINUOUS
 62
     3
 10
2.233043764234
 20
0.876564786431
 30
0.0
 11
2.224566264234
 21
0.872068286431
 31
0.0
  0
LINE
  5
4A3
  8
0
  6
CONTINUOUS
 62
     3
 10
2.224566264234
 20
0.872068286431
 30
0.0
 11
2.139383364234
 21
0.858576686431
 31
0.0
  0
LINE
  5
4A4
  8
0
  6
CONTINUOUS
 62
     3
 10
2.139383364234
 20
0.858576686431
 30
0.0
 11
2.129931264234
 21
0.860233286431
 31
0.0
  0
LINE
  5
4A5
  8
0
  6
CONTINUOUS
 62
     3
 10
2.129931264234
 20
0.860233286431
 30
0.0
 11
2.120104664234
 21
0.868780286431
 31
0.0
  0
LINE
  5
4A6
  8
0
  6
CONTINUOUS
 62
     3
 10
2.120104664234
 20
0.868780286431
 30
0.0
 11
2.110930464234
 21
0.884248586431
 31
0.0
  0
LINE
  5
4A7
  8
0
  6
CONTINUOUS
 62
     3
 10
2.110930464234
 20
0.884248586431
 30
0.0
 11
2.103435264234
 21
0.906550486431
 31
0.0
  0
LINE
  5
4A8
  8
0
  6
CONTINUOUS
 62
     3
 10
2.103435264234
 20
0.906550486431
 30
0.0
 11
2.099359164234
 21
0.935584286431
 31
0.0
  0
LINE
  5
4A9
  8
0
  6
CONTINUOUS
 62
     3
 10
2.099359164234
 20
0.935584286431
 30
0.0
 11
2.096135364234
 21
0.945113686431
 31
0.0
  0
LINE
  5
4AA
  8
0
  6
CONTINUOUS
 62
     3
 10
2.096135364234
 20
0.945113686431
 30
0.0
 11
2.092161964234
 21
0.954360486431
 31
0.0
  0
LINE
  5
4AB
  8
0
  6
CONTINUOUS
 62
     3
 10
2.092161964234
 20
0.954360486431
 30
0.0
 11
2.087714464234
 21
0.963389486431
 31
0.0
  0
LINE
  5
4AC
  8
0
  6
CONTINUOUS
 62
     3
 10
2.087714464234
 20
0.963389486431
 30
0.0
 11
2.082892264234
 21
0.972224286431
 31
0.0
  0
LINE
  5
4AD
  8
0
  6
CONTINUOUS
 62
     3
 10
2.082892264234
 20
0.972224286431
 30
0.0
 11
2.077753564234
 21
0.980878986431
 31
0.0
  0
LINE
  5
4AE
  8
0
  6
CONTINUOUS
 62
     3
 10
2.077753564234
 20
0.980878986431
 30
0.0
 11
2.072337664234
 21
0.989363186431
 31
0.0
  0
LINE
  5
4AF
  8
0
  6
CONTINUOUS
 62
     3
 10
2.072337664234
 20
0.989363186431
 30
0.0
 11
2.066674064234
 21
0.997684086431
 31
0.0
  0
LINE
  5
4B0
  8
0
  6
CONTINUOUS
 62
     3
 10
2.066674064234
 20
0.997684086431
 30
0.0
 11
2.060785464234
 21
1.005847386431
 31
0.0
  0
LINE
  5
4B1
  8
0
  6
CONTINUOUS
 62
     3
 10
2.060785464234
 20
1.005847386431
 30
0.0
 11
2.054690464234
 21
1.013857786431
 31
0.0
  0
LINE
  5
4B2
  8
0
  6
CONTINUOUS
 62
     3
 10
2.054690464234
 20
1.013857786431
 30
0.0
 11
2.048404564234
 21
1.021719286431
 31
0.0
  0
LINE
  5
4B3
  8
0
  6
CONTINUOUS
 62
     3
 10
2.048404564234
 20
1.021719286431
 30
0.0
 11
2.041941064234
 21
1.029435386431
 31
0.0
  0
LINE
  5
4B4
  8
0
  6
CONTINUOUS
 62
     3
 10
2.041941064234
 20
1.029435386431
 30
0.0
 11
2.035311164234
 21
1.037009086431
 31
0.0
  0
LINE
  5
4B5
  8
0
  6
CONTINUOUS
 62
     3
 10
2.035311164234
 20
1.037009086431
 30
0.0
 11
2.028524964234
 21
1.044443186431
 31
0.0
  0
LINE
  5
4B6
  8
0
  6
CONTINUOUS
 62
     3
 10
2.028524964234
 20
1.044443186431
 30
0.0
 11
2.021591464234
 21
1.051739986431
 31
0.0
  0
LINE
  5
4B7
  8
0
  6
CONTINUOUS
 62
     3
 10
2.021591464234
 20
1.051739986431
 30
0.0
 11
1.939338164234
 21
1.025014286431
 31
0.0
  0
LINE
  5
4B8
  8
0
  6
CONTINUOUS
 62
     3
 10
1.939338164234
 20
1.025014286431
 30
0.0
 11
1.938017764234
 21
1.015035586431
 31
0.0
  0
LINE
  5
4B9
  8
0
  6
CONTINUOUS
 62
     3
 10
1.938017764234
 20
1.015035586431
 30
0.0
 11
1.936897264234
 21
1.005032486431
 31
0.0
  0
LINE
  5
4BA
  8
0
  6
CONTINUOUS
 62
     3
 10
1.936897264234
 20
1.005032486431
 30
0.0
 11
1.935985364234
 21
0.995008286431
 31
0.0
  0
LINE
  5
4BB
  8
0
  6
CONTINUOUS
 62
     3
 10
1.935985364234
 20
0.995008286431
 30
0.0
 11
1.935291564234
 21
0.984966686431
 31
0.0
  0
LINE
  5
4BC
  8
0
  6
CONTINUOUS
 62
     3
 10
1.935291564234
 20
0.984966686431
 30
0.0
 11
1.934827064234
 21
0.974911786431
 31
0.0
  0
LINE
  5
4BD
  8
0
  6
CONTINUOUS
 62
     3
 10
1.934827064234
 20
0.974911786431
 30
0.0
 11
1.934604564234
 21
0.964848686431
 31
0.0
  0
LINE
  5
4BE
  8
0
  6
CONTINUOUS
 62
     3
 10
1.934604564234
 20
0.964848686431
 30
0.0
 11
1.934638864234
 21
0.954783186431
 31
0.0
  0
LINE
  5
4BF
  8
0
  6
CONTINUOUS
 62
     3
 10
1.934638864234
 20
0.954783186431
 30
0.0
 11
1.934947764234
 21
0.944722486431
 31
0.0
  0
LINE
  5
4C0
  8
0
  6
CONTINUOUS
 62
     3
 10
1.934947764234
 20
0.944722486431
 30
0.0
 11
1.935553064234
 21
0.934675286431
 31
0.0
  0
LINE
  5
4C1
  8
0
  6
CONTINUOUS
 62
     3
 10
1.935553064234
 20
0.934675286431
 30
0.0
 11
1.936482864234
 21
0.924652986431
 31
0.0
  0
LINE
  5
4C2
  8
0
  6
CONTINUOUS
 62
     3
 10
1.936482864234
 20
0.924652986431
 30
0.0
 11
1.937774664234
 21
0.914671086431
 31
0.0
  0
LINE
  5
4C3
  8
0
  6
CONTINUOUS
 62
     3
 10
1.937774664234
 20
0.914671086431
 30
0.0
 11
1.939483664234
 21
0.904752286431
 31
0.0
  0
LINE
  5
4C4
  8
0
  6
CONTINUOUS
 62
     3
 10
1.939483664234
 20
0.904752286431
 30
0.0
 11
1.941704264234
 21
0.894935986431
 31
0.0
  0
LINE
  5
4C5
  8
0
  6
CONTINUOUS
 62
     3
 10
1.941704264234
 20
0.894935986431
 30
0.0
 11
1.944697464234
 21
0.885331586431
 31
0.0
  0
LINE
  5
4C6
  8
0
  6
CONTINUOUS
 62
     3
 10
1.944697464234
 20
0.885331586431
 30
0.0
 11
1.958465364234
 21
0.859446886431
 31
0.0
  0
LINE
  5
4C7
  8
0
  6
CONTINUOUS
 62
     3
 10
1.958465364234
 20
0.859446886431
 30
0.0
 11
1.965510364234
 21
0.836998786431
 31
0.0
  0
LINE
  5
4C8
  8
0
  6
CONTINUOUS
 62
     3
 10
1.965510364234
 20
0.836998786431
 30
0.0
 11
1.967180364234
 21
0.819092186431
 31
0.0
  0
LINE
  5
4C9
  8
0
  6
CONTINUOUS
 62
     3
 10
1.967180364234
 20
0.819092186431
 30
0.0
 11
1.964254264234
 21
0.806401586431
 31
0.0
  0
LINE
  5
4CA
  8
0
  6
CONTINUOUS
 62
     3
 10
1.964254264234
 20
0.806401586431
 30
0.0
 11
1.957581064234
 21
0.799505486431
 31
0.0
  0
LINE
  5
4CB
  8
0
  6
CONTINUOUS
 62
     3
 10
1.957581064234
 20
0.799505486431
 30
0.0
 11
1.880736464234
 21
0.760351286431
 31
0.0
  0
LINE
  5
4CC
  8
0
  6
CONTINUOUS
 62
     3
 10
1.880736464234
 20
0.760351286431
 30
0.0
 11
1.871235064234
 21
0.759005986431
 31
0.0
  0
LINE
  5
4CD
  8
0
  6
CONTINUOUS
 62
     3
 10
1.871235064234
 20
0.759005986431
 30
0.0
 11
1.859248264234
 21
0.764097986431
 31
0.0
  0
LINE
  5
4CE
  8
0
  6
CONTINUOUS
 62
     3
 10
1.859248264234
 20
0.764097986431
 30
0.0
 11
1.845743064234
 21
0.775974286431
 31
0.0
  0
LINE
  5
4CF
  8
0
  6
CONTINUOUS
 62
     3
 10
1.845743064234
 20
0.775974286431
 30
0.0
 11
1.831723164234
 21
0.794868486431
 31
0.0
  0
LINE
  5
4D0
  8
0
  6
CONTINUOUS
 62
     3
 10
1.831723164234
 20
0.794868486431
 30
0.0
 11
1.818874564234
 21
0.821221586431
 31
0.0
  0
LINE
  5
4D1
  8
0
  6
CONTINUOUS
 62
     3
 10
1.818874564234
 20
0.821221586431
 30
0.0
 11
1.812863764234
 21
0.829288486431
 31
0.0
  0
LINE
  5
4D2
  8
0
  6
CONTINUOUS
 62
     3
 10
1.812863764234
 20
0.829288486431
 30
0.0
 11
1.806227464234
 21
0.836854886431
 31
0.0
  0
LINE
  5
4D3
  8
0
  6
CONTINUOUS
 62
     3
 10
1.806227464234
 20
0.836854886431
 30
0.0
 11
1.799207464234
 21
0.844067586431
 31
0.0
  0
LINE
  5
4D4
  8
0
  6
CONTINUOUS
 62
     3
 10
1.799207464234
 20
0.844067586431
 30
0.0
 11
1.791891264234
 21
0.850979886431
 31
0.0
  0
LINE
  5
4D5
  8
0
  6
CONTINUOUS
 62
     3
 10
1.791891264234
 20
0.850979886431
 30
0.0
 11
1.784329564234
 21
0.857623086431
 31
0.0
  0
LINE
  5
4D6
  8
0
  6
CONTINUOUS
 62
     3
 10
1.784329564234
 20
0.857623086431
 30
0.0
 11
1.776556964234
 21
0.864018386431
 31
0.0
  0
LINE
  5
4D7
  8
0
  6
CONTINUOUS
 62
     3
 10
1.776556964234
 20
0.864018386431
 30
0.0
 11
1.768599264234
 21
0.870181886431
 31
0.0
  0
LINE
  5
4D8
  8
0
  6
CONTINUOUS
 62
     3
 10
1.768599264234
 20
0.870181886431
 30
0.0
 11
1.760476264234
 21
0.876125886431
 31
0.0
  0
LINE
  5
4D9
  8
0
  6
CONTINUOUS
 62
     3
 10
1.760476264234
 20
0.876125886431
 30
0.0
 11
1.752204264234
 21
0.881860786431
 31
0.0
  0
LINE
  5
4DA
  8
0
  6
CONTINUOUS
 62
     3
 10
1.752204264234
 20
0.881860786431
 30
0.0
 11
1.743796664234
 21
0.887395086431
 31
0.0
  0
LINE
  5
4DB
  8
0
  6
CONTINUOUS
 62
     3
 10
1.743796664234
 20
0.887395086431
 30
0.0
 11
1.735265064234
 21
0.892736186431
 31
0.0
  0
LINE
  5
4DC
  8
0
  6
CONTINUOUS
 62
     3
 10
1.735265064234
 20
0.892736186431
 30
0.0
 11
1.726619264234
 21
0.897890486431
 31
0.0
  0
LINE
  5
4DD
  8
0
  6
CONTINUOUS
 62
     3
 10
1.726619264234
 20
0.897890486431
 30
0.0
 11
1.717867964234
 21
0.902863686431
 31
0.0
  0
LINE
  5
4DE
  8
0
  6
CONTINUOUS
 62
     3
 10
1.717867964234
 20
0.902863686431
 30
0.0
 11
1.709018964234
 21
0.907660786431
 31
0.0
  0
LINE
  5
4DF
  8
0
  6
CONTINUOUS
 62
     3
 10
1.709018964234
 20
0.907660786431
 30
0.0
 11
1.639050164234
 21
0.856825486431
 31
0.0
  0
LINE
  5
4E0
  8
0
  6
CONTINUOUS
 62
     3
 10
1.639050164234
 20
0.856825486431
 30
0.0
 11
1.640877964234
 21
0.846927186431
 31
0.0
  0
LINE
  5
4E1
  8
0
  6
CONTINUOUS
 62
     3
 10
1.640877964234
 20
0.846927186431
 30
0.0
 11
1.642903464234
 21
0.837067386431
 31
0.0
  0
LINE
  5
4E2
  8
0
  6
CONTINUOUS
 62
     3
 10
1.642903464234
 20
0.837067386431
 30
0.0
 11
1.645133764234
 21
0.827251986431
 31
0.0
  0
LINE
  5
4E3
  8
0
  6
CONTINUOUS
 62
     3
 10
1.645133764234
 20
0.827251986431
 30
0.0
 11
1.647577064234
 21
0.817487386431
 31
0.0
  0
LINE
  5
4E4
  8
0
  6
CONTINUOUS
 62
     3
 10
1.647577064234
 20
0.817487386431
 30
0.0
 11
1.650242364234
 21
0.807781186431
 31
0.0
  0
LINE
  5
4E5
  8
0
  6
CONTINUOUS
 62
     3
 10
1.650242364234
 20
0.807781186431
 30
0.0
 11
1.653140364234
 21
0.798141786431
 31
0.0
  0
LINE
  5
4E6
  8
0
  6
CONTINUOUS
 62
     3
 10
1.653140364234
 20
0.798141786431
 30
0.0
 11
1.656283464234
 21
0.788579586431
 31
0.0
  0
LINE
  5
4E7
  8
0
  6
CONTINUOUS
 62
     3
 10
1.656283464234
 20
0.788579586431
 30
0.0
 11
1.659686164234
 21
0.779106686431
 31
0.0
  0
LINE
  5
4E8
  8
0
  6
CONTINUOUS
 62
     3
 10
1.659686164234
 20
0.779106686431
 30
0.0
 11
1.663366564234
 21
0.769738386431
 31
0.0
  0
LINE
  5
4E9
  8
0
  6
CONTINUOUS
 62
     3
 10
1.663366564234
 20
0.769738386431
 30
0.0
 11
1.667347964234
 21
0.760493886431
 31
0.0
  0
LINE
  5
4EA
  8
0
  6
CONTINUOUS
 62
     3
 10
1.667347964234
 20
0.760493886431
 30
0.0
 11
1.671661064234
 21
0.751399686431
 31
0.0
  0
LINE
  5
4EB
  8
0
  6
CONTINUOUS
 62
     3
 10
1.671661064234
 20
0.751399686431
 30
0.0
 11
1.676351564234
 21
0.742494486431
 31
0.0
  0
LINE
  5
4EC
  8
0
  6
CONTINUOUS
 62
     3
 10
1.676351564234
 20
0.742494486431
 30
0.0
 11
1.681496864234
 21
0.733844786431
 31
0.0
  0
LINE
  5
4ED
  8
0
  6
CONTINUOUS
 62
     3
 10
1.681496864234
 20
0.733844786431
 30
0.0
 11
1.687311464234
 21
0.725635486431
 31
0.0
  0
LINE
  5
4EE
  8
0
  6
CONTINUOUS
 62
     3
 10
1.687311464234
 20
0.725635486431
 30
0.0
 11
1.708404364234
 21
0.705272086431
 31
0.0
  0
LINE
  5
4EF
  8
0
  6
CONTINUOUS
 62
     3
 10
1.708404364234
 20
0.705272086431
 30
0.0
 11
1.722041364234
 21
0.686099686431
 31
0.0
  0
LINE
  5
4F0
  8
0
  6
CONTINUOUS
 62
     3
 10
1.722041364234
 20
0.686099686431
 30
0.0
 11
1.729163064234
 21
0.669585586431
 31
0.0
  0
LINE
  5
4F1
  8
0
  6
CONTINUOUS
 62
     3
 10
1.729163064234
 20
0.669585586431
 30
0.0
 11
1.730301764234
 21
0.656611886431
 31
0.0
  0
LINE
  5
4F2
  8
0
  6
CONTINUOUS
 62
     3
 10
1.730301764234
 20
0.656611886431
 30
0.0
 11
1.726086164234
 21
0.647991286431
 31
0.0
  0
LINE
  5
4F3
  8
0
  6
CONTINUOUS
 62
     3
 10
1.726086164234
 20
0.647991286431
 30
0.0
 11
1.665101964234
 21
0.587007086431
 31
0.0
  0
LINE
  5
4F4
  8
0
  6
CONTINUOUS
 62
     3
 10
1.665101964234
 20
0.587007086431
 30
0.0
 11
1.656481364234
 21
0.582791486431
 31
0.0
  0
LINE
  5
4F5
  8
0
  6
CONTINUOUS
 62
     3
 10
1.656481364234
 20
0.582791486431
 30
0.0
 11
1.643507664234
 21
0.583930186431
 31
0.0
  0
LINE
  5
4F6
  8
0
  6
CONTINUOUS
 62
     3
 10
1.643507664234
 20
0.583930186431
 30
0.0
 11
1.626993564234
 21
0.591051886431
 31
0.0
  0
LINE
  5
4F7
  8
0
  6
CONTINUOUS
 62
     3
 10
1.626993564234
 20
0.591051886431
 30
0.0
 11
1.607821164234
 21
0.604688886431
 31
0.0
  0
LINE
  5
4F8
  8
0
  6
CONTINUOUS
 62
     3
 10
1.607821164234
 20
0.604688886431
 30
0.0
 11
1.587457764234
 21
0.625781786431
 31
0.0
  0
LINE
  5
4F9
  8
0
  6
CONTINUOUS
 62
     3
 10
1.587457764234
 20
0.625781786431
 30
0.0
 11
1.579248464234
 21
0.631596386431
 31
0.0
  0
LINE
  5
4FA
  8
0
  6
CONTINUOUS
 62
     3
 10
1.579248464234
 20
0.631596386431
 30
0.0
 11
1.570598764234
 21
0.636741686431
 31
0.0
  0
LINE
  5
4FB
  8
0
  6
CONTINUOUS
 62
     3
 10
1.570598764234
 20
0.636741686431
 30
0.0
 11
1.561693564234
 21
0.641432186431
 31
0.0
  0
LINE
  5
4FC
  8
0
  6
CONTINUOUS
 62
     3
 10
1.561693564234
 20
0.641432186431
 30
0.0
 11
1.552599364234
 21
0.645745286431
 31
0.0
  0
LINE
  5
4FD
  8
0
  6
CONTINUOUS
 62
     3
 10
1.552599364234
 20
0.645745286431
 30
0.0
 11
1.543354864234
 21
0.649726686431
 31
0.0
  0
LINE
  5
4FE
  8
0
  6
CONTINUOUS
 62
     3
 10
1.543354864234
 20
0.649726686431
 30
0.0
 11
1.533986564234
 21
0.653407086431
 31
0.0
  0
LINE
  5
4FF
  8
0
  6
CONTINUOUS
 62
     3
 10
1.533986564234
 20
0.653407086431
 30
0.0
 11
1.524513664234
 21
0.656809786431
 31
0.0
  0
LINE
  5
500
  8
0
  6
CONTINUOUS
 62
     3
 10
1.524513664234
 20
0.656809786431
 30
0.0
 11
1.514951464234
 21
0.659952886431
 31
0.0
  0
LINE
  5
501
  8
0
  6
CONTINUOUS
 62
     3
 10
1.514951464234
 20
0.659952886431
 30
0.0
 11
1.505312064234
 21
0.662850886431
 31
0.0
  0
LINE
  5
502
  8
0
  6
CONTINUOUS
 62
     3
 10
1.505312064234
 20
0.662850886431
 30
0.0
 11
1.495605864234
 21
0.665516186431
 31
0.0
  0
LINE
  5
503
  8
0
  6
CONTINUOUS
 62
     3
 10
1.495605864234
 20
0.665516186431
 30
0.0
 11
1.485841264234
 21
0.667959486431
 31
0.0
  0
LINE
  5
504
  8
0
  6
CONTINUOUS
 62
     3
 10
1.485841264234
 20
0.667959486431
 30
0.0
 11
1.476025864234
 21
0.670189786431
 31
0.0
  0
LINE
  5
505
  8
0
  6
CONTINUOUS
 62
     3
 10
1.476025864234
 20
0.670189786431
 30
0.0
 11
1.466166064234
 21
0.672215286431
 31
0.0
  0
LINE
  5
506
  8
0
  6
CONTINUOUS
 62
     3
 10
1.466166064234
 20
0.672215286431
 30
0.0
 11
1.456267764234
 21
0.674043086431
 31
0.0
  0
LINE
  5
507
  8
0
  6
CONTINUOUS
 62
     3
 10
1.456267764234
 20
0.674043086431
 30
0.0
 11
1.405432464234
 21
0.604074286431
 31
0.0
  0
LINE
  5
508
  8
0
  6
CONTINUOUS
 62
     3
 10
1.405432464234
 20
0.604074286431
 30
0.0
 11
1.410229564234
 21
0.595225286431
 31
0.0
  0
LINE
  5
509
  8
0
  6
CONTINUOUS
 62
     3
 10
1.410229564234
 20
0.595225286431
 30
0.0
 11
1.415202764234
 21
0.586473986431
 31
0.0
  0
LINE
  5
50A
  8
0
  6
CONTINUOUS
 62
     3
 10
1.415202764234
 20
0.586473986431
 30
0.0
 11
1.420357064234
 21
0.577828186431
 31
0.0
  0
LINE
  5
50B
  8
0
  6
CONTINUOUS
 62
     3
 10
1.420357064234
 20
0.577828186431
 30
0.0
 11
1.425698164234
 21
0.569296586431
 31
0.0
  0
LINE
  5
50C
  8
0
  6
CONTINUOUS
 62
     3
 10
1.425698164234
 20
0.569296586431
 30
0.0
 11
1.431232464234
 21
0.560888986431
 31
0.0
  0
LINE
  5
50D
  8
0
  6
CONTINUOUS
 62
     3
 10
1.431232464234
 20
0.560888986431
 30
0.0
 11
1.436967364234
 21
0.552616986431
 31
0.0
  0
LINE
  5
50E
  8
0
  6
CONTINUOUS
 62
     3
 10
1.436967364234
 20
0.552616986431
 30
0.0
 11
1.442911364234
 21
0.544493986431
 31
0.0
  0
LINE
  5
50F
  8
0
  6
CONTINUOUS
 62
     3
 10
1.442911364234
 20
0.544493986431
 30
0.0
 11
1.449074864234
 21
0.536536286431
 31
0.0
  0
LINE
  5
510
  8
0
  6
CONTINUOUS
 62
     3
 10
1.449074864234
 20
0.536536286431
 30
0.0
 11
1.455470164234
 21
0.528763686431
 31
0.0
  0
LINE
  5
511
  8
0
  6
CONTINUOUS
 62
     3
 10
1.455470164234
 20
0.528763686431
 30
0.0
 11
1.462113364234
 21
0.521201986431
 31
0.0
  0
LINE
  5
512
  8
0
  6
CONTINUOUS
 62
     3
 10
1.462113364234
 20
0.521201986431
 30
0.0
 11
1.469025664234
 21
0.513885786431
 31
0.0
  0
LINE
  5
513
  8
0
  6
CONTINUOUS
 62
     3
 10
1.469025664234
 20
0.513885786431
 30
0.0
 11
1.476238364234
 21
0.506865786431
 31
0.0
  0
LINE
  5
514
  8
0
  6
CONTINUOUS
 62
     3
 10
1.476238364234
 20
0.506865786431
 30
0.0
 11
1.483804764234
 21
0.500229486431
 31
0.0
  0
LINE
  5
515
  8
0
  6
CONTINUOUS
 62
     3
 10
1.483804764234
 20
0.500229486431
 30
0.0
 11
1.491871664234
 21
0.494218686431
 31
0.0
  0
LINE
  5
516
  8
0
  6
CONTINUOUS
 62
     3
 10
1.491871664234
 20
0.494218686431
 30
0.0
 11
1.518224764234
 21
0.481370086431
 31
0.0
  0
LINE
  5
517
  8
0
  6
CONTINUOUS
 62
     3
 10
1.518224764234
 20
0.481370086431
 30
0.0
 11
1.537118964234
 21
0.467350186431
 31
0.0
  0
LINE
  5
518
  8
0
  6
CONTINUOUS
 62
     3
 10
1.537118964234
 20
0.467350186431
 30
0.0
 11
1.548995264234
 21
0.453844986431
 31
0.0
  0
LINE
  5
519
  8
0
  6
CONTINUOUS
 62
     3
 10
1.548995264234
 20
0.453844986431
 30
0.0
 11
1.554087264234
 21
0.441858186431
 31
0.0
  0
LINE
  5
51A
  8
0
  6
CONTINUOUS
 62
     3
 10
1.554087264234
 20
0.441858186431
 30
0.0
 11
1.552741964234
 21
0.432356786431
 31
0.0
  0
LINE
  5
51B
  8
0
  6
CONTINUOUS
 62
     3
 10
1.552741964234
 20
0.432356786431
 30
0.0
 11
1.513587764234
 21
0.355512186431
 31
0.0
  0
LINE
  5
51C
  8
0
  6
CONTINUOUS
 62
     3
 10
1.513587764234
 20
0.355512186431
 30
0.0
 11
1.506691664234
 21
0.348838986431
 31
0.0
  0
LINE
  5
51D
  8
0
  6
CONTINUOUS
 62
     3
 10
1.506691664234
 20
0.348838986431
 30
0.0
 11
1.494001064234
 21
0.345912886431
 31
0.0
  0
LINE
  5
51E
  8
0
  6
CONTINUOUS
 62
     3
 10
1.494001064234
 20
0.345912886431
 30
0.0
 11
1.476094464234
 21
0.347582886431
 31
0.0
  0
LINE
  5
51F
  8
0
  6
CONTINUOUS
 62
     3
 10
1.476094464234
 20
0.347582886431
 30
0.0
 11
1.453646364234
 21
0.354627886431
 31
0.0
  0
LINE
  5
520
  8
0
  6
CONTINUOUS
 62
     3
 10
1.453646364234
 20
0.354627886431
 30
0.0
 11
1.427761664234
 21
0.368395786431
 31
0.0
  0
LINE
  5
521
  8
0
  6
CONTINUOUS
 62
     3
 10
1.427761664234
 20
0.368395786431
 30
0.0
 11
1.418157264234
 21
0.371388986431
 31
0.0
  0
LINE
  5
522
  8
0
  6
CONTINUOUS
 62
     3
 10
1.418157264234
 20
0.371388986431
 30
0.0
 11
1.408340964234
 21
0.373609586431
 31
0.0
  0
LINE
  5
523
  8
0
  6
CONTINUOUS
 62
     3
 10
1.408340964234
 20
0.373609586431
 30
0.0
 11
1.398422164234
 21
0.375318586431
 31
0.0
  0
LINE
  5
524
  8
0
  6
CONTINUOUS
 62
     3
 10
1.398422164234
 20
0.375318586431
 30
0.0
 11
1.388440264234
 21
0.376610386431
 31
0.0
  0
LINE
  5
525
  8
0
  6
CONTINUOUS
 62
     3
 10
1.388440264234
 20
0.376610386431
 30
0.0
 11
1.378417964234
 21
0.377540186431
 31
0.0
  0
LINE
  5
526
  8
0
  6
CONTINUOUS
 62
     3
 10
1.378417964234
 20
0.377540186431
 30
0.0
 11
1.368370764234
 21
0.378145486431
 31
0.0
  0
LINE
  5
527
  8
0
  6
CONTINUOUS
 62
     3
 10
1.368370764234
 20
0.378145486431
 30
0.0
 11
1.358310064234
 21
0.378454386431
 31
0.0
  0
LINE
  5
528
  8
0
  6
CONTINUOUS
 62
     3
 10
1.358310064234
 20
0.378454386431
 30
0.0
 11
1.348244564234
 21
0.378488686431
 31
0.0
  0
LINE
  5
529
  8
0
  6
CONTINUOUS
 62
     3
 10
1.348244564234
 20
0.378488686431
 30
0.0
 11
1.338181464234
 21
0.378266186431
 31
0.0
  0
LINE
  5
52A
  8
0
  6
CONTINUOUS
 62
     3
 10
1.338181464234
 20
0.378266186431
 30
0.0
 11
1.328126564234
 21
0.377801686431
 31
0.0
  0
LINE
  5
52B
  8
0
  6
CONTINUOUS
 62
     3
 10
1.328126564234
 20
0.377801686431
 30
0.0
 11
1.318084964234
 21
0.377107886431
 31
0.0
  0
LINE
  5
52C
  8
0
  6
CONTINUOUS
 62
     3
 10
1.318084964234
 20
0.377107886431
 30
0.0
 11
1.308060764234
 21
0.376195986431
 31
0.0
  0
LINE
  5
52D
  8
0
  6
CONTINUOUS
 62
     3
 10
1.308060764234
 20
0.376195986431
 30
0.0
 11
1.298057664234
 21
0.375075486431
 31
0.0
  0
LINE
  5
52E
  8
0
  6
CONTINUOUS
 62
     3
 10
1.298057664234
 20
0.375075486431
 30
0.0
 11
1.288078964234
 21
0.373755086431
 31
0.0
  0
LINE
  5
52F
  8
0
  6
CONTINUOUS
 62
     3
 10
1.288078964234
 20
0.373755086431
 30
0.0
 11
1.261353264234
 21
0.291501786431
 31
0.0
  0
LINE
  5
530
  8
0
  6
CONTINUOUS
 62
     3
 10
1.261353264234
 20
0.291501786431
 30
0.0
 11
1.268650064234
 21
0.284568286431
 31
0.0
  0
LINE
  5
531
  8
0
  6
CONTINUOUS
 62
     3
 10
1.268650064234
 20
0.284568286431
 30
0.0
 11
1.276084164234
 21
0.277782086431
 31
0.0
  0
LINE
  5
532
  8
0
  6
CONTINUOUS
 62
     3
 10
1.276084164234
 20
0.277782086431
 30
0.0
 11
1.283657864234
 21
0.271152186431
 31
0.0
  0
LINE
  5
533
  8
0
  6
CONTINUOUS
 62
     3
 10
1.283657864234
 20
0.271152186431
 30
0.0
 11
1.291373964234
 21
0.264688686431
 31
0.0
  0
LINE
  5
534
  8
0
  6
CONTINUOUS
 62
     3
 10
1.291373964234
 20
0.264688686431
 30
0.0
 11
1.299235464234
 21
0.258402786431
 31
0.0
  0
LINE
  5
535
  8
0
  6
CONTINUOUS
 62
     3
 10
1.299235464234
 20
0.258402786431
 30
0.0
 11
1.307245864234
 21
0.252307786431
 31
0.0
  0
LINE
  5
536
  8
0
  6
CONTINUOUS
 62
     3
 10
1.307245864234
 20
0.252307786431
 30
0.0
 11
1.315409164234
 21
0.246419186431
 31
0.0
  0
LINE
  5
537
  8
0
  6
CONTINUOUS
 62
     3
 10
1.315409164234
 20
0.246419186431
 30
0.0
 11
1.323730064234
 21
0.240755586431
 31
0.0
  0
LINE
  5
538
  8
0
  6
CONTINUOUS
 62
     3
 10
1.323730064234
 20
0.240755586431
 30
0.0
 11
1.332214264234
 21
0.235339686431
 31
0.0
  0
LINE
  5
539
  8
0
  6
CONTINUOUS
 62
     3
 10
1.332214264234
 20
0.235339686431
 30
0.0
 11
1.340868964234
 21
0.230200986431
 31
0.0
  0
LINE
  5
53A
  8
0
  6
CONTINUOUS
 62
     3
 10
1.340868964234
 20
0.230200986431
 30
0.0
 11
1.349703764234
 21
0.225378786431
 31
0.0
  0
LINE
  5
53B
  8
0
  6
CONTINUOUS
 62
     3
 10
1.349703764234
 20
0.225378786431
 30
0.0
 11
1.358732764234
 21
0.220931286431
 31
0.0
  0
LINE
  5
53C
  8
0
  6
CONTINUOUS
 62
     3
 10
1.358732764234
 20
0.220931286431
 30
0.0
 11
1.367979564234
 21
0.216957886431
 31
0.0
  0
LINE
  5
53D
  8
0
  6
CONTINUOUS
 62
     3
 10
1.367979564234
 20
0.216957886431
 30
0.0
 11
1.377508964234
 21
0.213734086431
 31
0.0
  0
LINE
  5
53E
  8
0
  6
CONTINUOUS
 62
     3
 10
1.377508964234
 20
0.213734086431
 30
0.0
 11
1.406542764234
 21
0.209657986431
 31
0.0
  0
LINE
  5
53F
  8
0
  6
CONTINUOUS
 62
     3
 10
1.406542764234
 20
0.209657986431
 30
0.0
 11
1.428844664234
 21
0.202162786431
 31
0.0
  0
LINE
  5
540
  8
0
  6
CONTINUOUS
 62
     3
 10
1.428844664234
 20
0.202162786431
 30
0.0
 11
1.444312964234
 21
0.192988586431
 31
0.0
  0
LINE
  5
541
  8
0
  6
CONTINUOUS
 62
     3
 10
1.444312964234
 20
0.192988586431
 30
0.0
 11
1.452859964234
 21
0.183161986431
 31
0.0
  0
LINE
  5
542
  8
0
  6
CONTINUOUS
 62
     3
 10
1.452859964234
 20
0.183161986431
 30
0.0
 11
1.454516564234
 21
0.173709886431
 31
0.0
  0
LINE
  5
543
  8
0
  6
CONTINUOUS
 62
     3
 10
1.454516564234
 20
0.173709886431
 30
0.0
 11
1.441024964234
 21
0.088526986431
 31
0.0
  0
LINE
  5
544
  8
0
  6
CONTINUOUS
 62
     3
 10
1.441024964234
 20
0.088526986431
 30
0.0
 11
1.436528464234
 21
0.080049486431
 31
0.0
  0
LINE
  5
545
  8
0
  6
CONTINUOUS
 62
     3
 10
1.436528464234
 20
0.080049486431
 30
0.0
 11
1.425363264234
 21
0.073344886431
 31
0.0
  0
LINE
  5
546
  8
0
  6
CONTINUOUS
 62
     3
 10
1.425363264234
 20
0.073344886431
 30
0.0
 11
1.407817064234
 21
0.069399786431
 31
0.0
  0
LINE
  5
547
  8
0
  6
CONTINUOUS
 62
     3
 10
1.407817064234
 20
0.069399786431
 30
0.0
 11
1.384290564234
 21
0.069163086431
 31
0.0
  0
LINE
  5
548
  8
0
  6
CONTINUOUS
 62
     3
 10
1.384290564234
 20
0.069163086431
 30
0.0
 11
1.355418264234
 21
0.074258386431
 31
0.0
  0
LINE
  5
549
  8
0
  6
CONTINUOUS
 62
     3
 10
1.355418264234
 20
0.074258386431
 30
0.0
 11
1.345358964234
 21
0.074137086431
 31
0.0
  0
LINE
  5
54A
  8
0
  6
CONTINUOUS
 62
     3
 10
1.345358964234
 20
0.074137086431
 30
0.0
 11
1.335336864234
 21
0.073215586431
 31
0.0
  0
LINE
  5
54B
  8
0
  6
CONTINUOUS
 62
     3
 10
1.335336864234
 20
0.073215586431
 30
0.0
 11
1.325375464234
 21
0.071775886431
 31
0.0
  0
LINE
  5
54C
  8
0
  6
CONTINUOUS
 62
     3
 10
1.325375464234
 20
0.071775886431
 30
0.0
 11
1.315482864234
 21
0.069919886431
 31
0.0
  0
LINE
  5
54D
  8
0
  6
CONTINUOUS
 62
     3
 10
1.315482864234
 20
0.069919886431
 30
0.0
 11
1.305663864234
 21
0.067707086431
 31
0.0
  0
LINE
  5
54E
  8
0
  6
CONTINUOUS
 62
     3
 10
1.305663864234
 20
0.067707086431
 30
0.0
 11
1.295921264234
 21
0.065178086431
 31
0.0
  0
LINE
  5
54F
  8
0
  6
CONTINUOUS
 62
     3
 10
1.295921264234
 20
0.065178086431
 30
0.0
 11
1.286257564234
 21
0.062362886431
 31
0.0
  0
LINE
  5
550
  8
0
  6
CONTINUOUS
 62
     3
 10
1.286257564234
 20
0.062362886431
 30
0.0
 11
1.276674064234
 21
0.059285086431
 31
0.0
  0
LINE
  5
551
  8
0
  6
CONTINUOUS
 62
     3
 10
1.276674064234
 20
0.059285086431
 30
0.0
 11
1.267172264234
 21
0.055963786431
 31
0.0
  0
LINE
  5
552
  8
0
  6
CONTINUOUS
 62
     3
 10
1.267172264234
 20
0.055963786431
 30
0.0
 11
1.257753064234
 21
0.052414886431
 31
0.0
  0
LINE
  5
553
  8
0
  6
CONTINUOUS
 62
     3
 10
1.257753064234
 20
0.052414886431
 30
0.0
 11
1.248417264234
 21
0.048652086431
 31
0.0
  0
LINE
  5
554
  8
0
  6
CONTINUOUS
 62
     3
 10
1.248417264234
 20
0.048652086431
 30
0.0
 11
1.239165464234
 21
0.044687086431
 31
0.0
  0
LINE
  5
555
  8
0
  6
CONTINUOUS
 62
     3
 10
1.239165464234
 20
0.044687086431
 30
0.0
 11
1.229998264234
 21
0.040530286431
 31
0.0
  0
LINE
  5
556
  8
0
  6
CONTINUOUS
 62
     3
 10
1.229998264234
 20
0.040530286431
 30
0.0
 11
1.220915964234
 21
0.036190986431
 31
0.0
  0
LINE
  5
557
  8
0
  6
CONTINUOUS
 62
     3
 10
1.220915964234
 20
0.036190986431
 30
0.0
 11
1.220915964234
 21
-0.050295213569
 31
0.0
  0
LINE
  5
558
  8
0
  6
CONTINUOUS
 62
     3
 10
1.220915964234
 20
-0.050295213569
 30
0.0
 11
1.229998264234
 21
-0.054634513569
 31
0.0
  0
LINE
  5
559
  8
0
  6
CONTINUOUS
 62
     3
 10
1.229998264234
 20
-0.054634513569
 30
0.0
 11
1.239165464234
 21
-0.058791313569
 31
0.0
  0
LINE
  5
55A
  8
0
  6
CONTINUOUS
 62
     3
 10
1.239165464234
 20
-0.058791313569
 30
0.0
 11
1.248417264234
 21
-0.062756313569
 31
0.0
  0
LINE
  5
55B
  8
0
  6
CONTINUOUS
 62
     3
 10
1.248417264234
 20
-0.062756313569
 30
0.0
 11
1.257753064234
 21
-0.066519113569
 31
0.0
  0
LINE
  5
55C
  8
0
  6
CONTINUOUS
 62
     3
 10
1.257753064234
 20
-0.066519113569
 30
0.0
 11
1.267172264234
 21
-0.070068013569
 31
0.0
  0
LINE
  5
55D
  8
0
  6
CONTINUOUS
 62
     3
 10
1.267172264234
 20
-0.070068013569
 30
0.0
 11
1.276674064234
 21
-0.073389313569
 31
0.0
  0
LINE
  5
55E
  8
0
  6
CONTINUOUS
 62
     3
 10
1.276674064234
 20
-0.073389313569
 30
0.0
 11
1.286257564234
 21
-0.076467113569
 31
0.0
  0
LINE
  5
55F
  8
0
  6
CONTINUOUS
 62
     3
 10
1.286257564234
 20
-0.076467113569
 30
0.0
 11
1.295921264234
 21
-0.079282313569
 31
0.0
  0
LINE
  5
560
  8
0
  6
CONTINUOUS
 62
     3
 10
1.295921264234
 20
-0.079282313569
 30
0.0
 11
1.305663864234
 21
-0.081811313569
 31
0.0
  0
LINE
  5
561
  8
0
  6
CONTINUOUS
 62
     3
 10
1.305663864234
 20
-0.081811313569
 30
0.0
 11
1.315482864234
 21
-0.084024113569
 31
0.0
  0
LINE
  5
562
  8
0
  6
CONTINUOUS
 62
     3
 10
1.315482864234
 20
-0.084024113569
 30
0.0
 11
1.325375464234
 21
-0.085880113569
 31
0.0
  0
LINE
  5
563
  8
0
  6
CONTINUOUS
 62
     3
 10
1.325375464234
 20
-0.085880113569
 30
0.0
 11
1.335336864234
 21
-0.087319813569
 31
0.0
  0
LINE
  5
564
  8
0
  6
CONTINUOUS
 62
     3
 10
1.335336864234
 20
-0.087319813569
 30
0.0
 11
1.345358964234
 21
-0.088241313569
 31
0.0
  0
LINE
  5
565
  8
0
  6
CONTINUOUS
 62
     3
 10
1.345358964234
 20
-0.088241313569
 30
0.0
 11
1.355418264234
 21
-0.088362613569
 31
0.0
  0
LINE
  5
566
  8
0
  6
CONTINUOUS
 62
     3
 10
1.355418264234
 20
-0.088362613569
 30
0.0
 11
1.384290564234
 21
-0.083267313569
 31
0.0
  0
LINE
  5
567
  8
0
  6
CONTINUOUS
 62
     3
 10
1.384290564234
 20
-0.083267313569
 30
0.0
 11
1.407817064234
 21
-0.083504013569
 31
0.0
  0
LINE
  5
568
  8
0
  6
CONTINUOUS
 62
     3
 10
1.407817064234
 20
-0.083504013569
 30
0.0
 11
1.425363264234
 21
-0.087449113569
 31
0.0
  0
LINE
  5
569
  8
0
  6
CONTINUOUS
 62
     3
 10
1.425363264234
 20
-0.087449113569
 30
0.0
 11
1.436528464234
 21
-0.094153713569
 31
0.0
  0
LINE
  5
56A
  8
0
  6
CONTINUOUS
 62
     3
 10
1.436528464234
 20
-0.094153713569
 30
0.0
 11
1.441024964234
 21
-0.102631213569
 31
0.0
  0
LINE
  5
56B
  8
0
  6
CONTINUOUS
 62
     3
 10
1.441024964234
 20
-0.102631213569
 30
0.0
 11
1.454516564234
 21
-0.187814113569
 31
0.0
  0
LINE
  5
56C
  8
0
  6
CONTINUOUS
 62
     3
 10
1.454516564234
 20
-0.187814113569
 30
0.0
 11
1.452859964234
 21
-0.197266213569
 31
0.0
  0
LINE
  5
56D
  8
0
  6
CONTINUOUS
 62
     3
 10
1.452859964234
 20
-0.197266213569
 30
0.0
 11
1.444312964234
 21
-0.207092813569
 31
0.0
  0
LINE
  5
56E
  8
0
  6
CONTINUOUS
 62
     3
 10
1.444312964234
 20
-0.207092813569
 30
0.0
 11
1.428844664234
 21
-0.216267013569
 31
0.0
  0
LINE
  5
56F
  8
0
  6
CONTINUOUS
 62
     3
 10
1.428844664234
 20
-0.216267013569
 30
0.0
 11
1.406542764234
 21
-0.223762213569
 31
0.0
  0
LINE
  5
570
  8
0
  6
CONTINUOUS
 62
     3
 10
1.406542764234
 20
-0.223762213569
 30
0.0
 11
1.377508964234
 21
-0.227838313569
 31
0.0
  0
LINE
  5
571
  8
0
  6
CONTINUOUS
 62
     3
 10
1.377508964234
 20
-0.227838313569
 30
0.0
 11
1.367979564234
 21
-0.231062113569
 31
0.0
  0
LINE
  5
572
  8
0
  6
CONTINUOUS
 62
     3
 10
1.367979564234
 20
-0.231062113569
 30
0.0
 11
1.358732764234
 21
-0.235035513569
 31
0.0
  0
LINE
  5
573
  8
0
  6
CONTINUOUS
 62
     3
 10
1.358732764234
 20
-0.235035513569
 30
0.0
 11
1.349703764234
 21
-0.239483013569
 31
0.0
  0
LINE
  5
574
  8
0
  6
CONTINUOUS
 62
     3
 10
1.349703764234
 20
-0.239483013569
 30
0.0
 11
1.340868964234
 21
-0.244305213569
 31
0.0
  0
LINE
  5
575
  8
0
  6
CONTINUOUS
 62
     3
 10
1.340868964234
 20
-0.244305213569
 30
0.0
 11
1.332214264234
 21
-0.249443913569
 31
0.0
  0
LINE
  5
576
  8
0
  6
CONTINUOUS
 62
     3
 10
1.332214264234
 20
-0.249443913569
 30
0.0
 11
1.323730064234
 21
-0.254859813569
 31
0.0
  0
LINE
  5
577
  8
0
  6
CONTINUOUS
 62
     3
 10
1.323730064234
 20
-0.254859813569
 30
0.0
 11
1.315409164234
 21
-0.260523413569
 31
0.0
  0
LINE
  5
578
  8
0
  6
CONTINUOUS
 62
     3
 10
1.315409164234
 20
-0.260523413569
 30
0.0
 11
1.307245864234
 21
-0.266412013569
 31
0.0
  0
LINE
  5
579
  8
0
  6
CONTINUOUS
 62
     3
 10
1.307245864234
 20
-0.266412013569
 30
0.0
 11
1.299235464234
 21
-0.272507013569
 31
0.0
  0
LINE
  5
57A
  8
0
  6
CONTINUOUS
 62
     3
 10
1.299235464234
 20
-0.272507013569
 30
0.0
 11
1.291373964234
 21
-0.278792913569
 31
0.0
  0
LINE
  5
57B
  8
0
  6
CONTINUOUS
 62
     3
 10
1.291373964234
 20
-0.278792913569
 30
0.0
 11
1.283657864234
 21
-0.285256413569
 31
0.0
  0
LINE
  5
57C
  8
0
  6
CONTINUOUS
 62
     3
 10
1.283657864234
 20
-0.285256413569
 30
0.0
 11
1.276084164234
 21
-0.291886313569
 31
0.0
  0
LINE
  5
57D
  8
0
  6
CONTINUOUS
 62
     3
 10
1.276084164234
 20
-0.291886313569
 30
0.0
 11
1.268650064234
 21
-0.298672513569
 31
0.0
  0
LINE
  5
57E
  8
0
  6
CONTINUOUS
 62
     3
 10
1.268650064234
 20
-0.298672513569
 30
0.0
 11
1.261353264234
 21
-0.305606013569
 31
0.0
  0
LINE
  5
57F
  8
0
  6
CONTINUOUS
 62
     3
 10
1.261353264234
 20
-0.305606013569
 30
0.0
 11
1.288078964234
 21
-0.387859313569
 31
0.0
  0
LINE
  5
580
  8
0
  6
CONTINUOUS
 62
     3
 10
1.288078964234
 20
-0.387859313569
 30
0.0
 11
1.298057664234
 21
-0.389179713569
 31
0.0
  0
LINE
  5
581
  8
0
  6
CONTINUOUS
 62
     3
 10
1.298057664234
 20
-0.389179713569
 30
0.0
 11
1.308060764234
 21
-0.390300213569
 31
0.0
  0
LINE
  5
582
  8
0
  6
CONTINUOUS
 62
     3
 10
1.308060764234
 20
-0.390300213569
 30
0.0
 11
1.318084964234
 21
-0.391212113569
 31
0.0
  0
LINE
  5
583
  8
0
  6
CONTINUOUS
 62
     3
 10
1.318084964234
 20
-0.391212113569
 30
0.0
 11
1.328126564234
 21
-0.391905913569
 31
0.0
  0
LINE
  5
584
  8
0
  6
CONTINUOUS
 62
     3
 10
1.328126564234
 20
-0.391905913569
 30
0.0
 11
1.338181464234
 21
-0.392370413569
 31
0.0
  0
LINE
  5
585
  8
0
  6
CONTINUOUS
 62
     3
 10
1.338181464234
 20
-0.392370413569
 30
0.0
 11
1.348244564234
 21
-0.392592913569
 31
0.0
  0
LINE
  5
586
  8
0
  6
CONTINUOUS
 62
     3
 10
1.348244564234
 20
-0.392592913569
 30
0.0
 11
1.358310064234
 21
-0.392558613569
 31
0.0
  0
LINE
  5
587
  8
0
  6
CONTINUOUS
 62
     3
 10
1.358310064234
 20
-0.392558613569
 30
0.0
 11
1.368370764234
 21
-0.392249713569
 31
0.0
  0
LINE
  5
588
  8
0
  6
CONTINUOUS
 62
     3
 10
1.368370764234
 20
-0.392249713569
 30
0.0
 11
1.378417964234
 21
-0.391644413569
 31
0.0
  0
LINE
  5
589
  8
0
  6
CONTINUOUS
 62
     3
 10
1.378417964234
 20
-0.391644413569
 30
0.0
 11
1.388440264234
 21
-0.390714613569
 31
0.0
  0
LINE
  5
58A
  8
0
  6
CONTINUOUS
 62
     3
 10
1.388440264234
 20
-0.390714613569
 30
0.0
 11
1.398422164234
 21
-0.389422813569
 31
0.0
  0
LINE
  5
58B
  8
0
  6
CONTINUOUS
 62
     3
 10
1.398422164234
 20
-0.389422813569
 30
0.0
 11
1.408340964234
 21
-0.387713813569
 31
0.0
  0
LINE
  5
58C
  8
0
  6
CONTINUOUS
 62
     3
 10
1.408340964234
 20
-0.387713813569
 30
0.0
 11
1.418157264234
 21
-0.385493213569
 31
0.0
  0
LINE
  5
58D
  8
0
  6
CONTINUOUS
 62
     3
 10
1.418157264234
 20
-0.385493213569
 30
0.0
 11
1.427761664234
 21
-0.382500013569
 31
0.0
  0
LINE
  5
58E
  8
0
  6
CONTINUOUS
 62
     3
 10
1.427761664234
 20
-0.382500013569
 30
0.0
 11
1.453646364234
 21
-0.368732113569
 31
0.0
  0
LINE
  5
58F
  8
0
  6
CONTINUOUS
 62
     3
 10
1.453646364234
 20
-0.368732113569
 30
0.0
 11
1.476094464234
 21
-0.361687113569
 31
0.0
  0
LINE
  5
590
  8
0
  6
CONTINUOUS
 62
     3
 10
1.476094464234
 20
-0.361687113569
 30
0.0
 11
1.494001064234
 21
-0.360017113569
 31
0.0
  0
LINE
  5
591
  8
0
  6
CONTINUOUS
 62
     3
 10
1.494001064234
 20
-0.360017113569
 30
0.0
 11
1.506691664234
 21
-0.362943213569
 31
0.0
  0
LINE
  5
592
  8
0
  6
CONTINUOUS
 62
     3
 10
1.506691664234
 20
-0.362943213569
 30
0.0
 11
1.513587764234
 21
-0.369616413569
 31
0.0
  0
LINE
  5
593
  8
0
  6
CONTINUOUS
 62
     3
 10
1.513587764234
 20
-0.369616413569
 30
0.0
 11
1.552741964234
 21
-0.446461013569
 31
0.0
  0
LINE
  5
594
  8
0
  6
CONTINUOUS
 62
     3
 10
1.552741964234
 20
-0.446461013569
 30
0.0
 11
1.554087264234
 21
-0.455962413569
 31
0.0
  0
LINE
  5
595
  8
0
  6
CONTINUOUS
 62
     3
 10
1.554087264234
 20
-0.455962413569
 30
0.0
 11
1.548995264234
 21
-0.467949213569
 31
0.0
  0
LINE
  5
596
  8
0
  6
CONTINUOUS
 62
     3
 10
1.548995264234
 20
-0.467949213569
 30
0.0
 11
1.537118964234
 21
-0.481454413569
 31
0.0
  0
LINE
  5
597
  8
0
  6
CONTINUOUS
 62
     3
 10
1.537118964234
 20
-0.481454413569
 30
0.0
 11
1.518224764234
 21
-0.495474313569
 31
0.0
  0
LINE
  5
598
  8
0
  6
CONTINUOUS
 62
     3
 10
1.518224764234
 20
-0.495474313569
 30
0.0
 11
1.491871664234
 21
-0.508322913569
 31
0.0
  0
LINE
  5
599
  8
0
  6
CONTINUOUS
 62
     3
 10
1.491871664234
 20
-0.508322913569
 30
0.0
 11
1.483804764234
 21
-0.514333713569
 31
0.0
  0
LINE
  5
59A
  8
0
  6
CONTINUOUS
 62
     3
 10
1.483804764234
 20
-0.514333713569
 30
0.0
 11
1.476238364234
 21
-0.520970013569
 31
0.0
  0
LINE
  5
59B
  8
0
  6
CONTINUOUS
 62
     3
 10
1.476238364234
 20
-0.520970013569
 30
0.0
 11
1.469025664234
 21
-0.527990013569
 31
0.0
  0
LINE
  5
59C
  8
0
  6
CONTINUOUS
 62
     3
 10
1.469025664234
 20
-0.527990013569
 30
0.0
 11
1.462113364234
 21
-0.535306213569
 31
0.0
  0
LINE
  5
59D
  8
0
  6
CONTINUOUS
 62
     3
 10
1.462113364234
 20
-0.535306213569
 30
0.0
 11
1.455470164234
 21
-0.542867913569
 31
0.0
  0
LINE
  5
59E
  8
0
  6
CONTINUOUS
 62
     3
 10
1.455470164234
 20
-0.542867913569
 30
0.0
 11
1.449074864234
 21
-0.550640513569
 31
0.0
  0
LINE
  5
59F
  8
0
  6
CONTINUOUS
 62
     3
 10
1.449074864234
 20
-0.550640513569
 30
0.0
 11
1.442911364234
 21
-0.558598213569
 31
0.0
  0
LINE
  5
5A0
  8
0
  6
CONTINUOUS
 62
     3
 10
1.442911364234
 20
-0.558598213569
 30
0.0
 11
1.436967364234
 21
-0.566721213569
 31
0.0
  0
LINE
  5
5A1
  8
0
  6
CONTINUOUS
 62
     3
 10
1.436967364234
 20
-0.566721213569
 30
0.0
 11
1.431232464234
 21
-0.574993213569
 31
0.0
  0
LINE
  5
5A2
  8
0
  6
CONTINUOUS
 62
     3
 10
1.431232464234
 20
-0.574993213569
 30
0.0
 11
1.425698164234
 21
-0.583400813569
 31
0.0
  0
LINE
  5
5A3
  8
0
  6
CONTINUOUS
 62
     3
 10
1.425698164234
 20
-0.583400813569
 30
0.0
 11
1.420357064234
 21
-0.591932413569
 31
0.0
  0
LINE
  5
5A4
  8
0
  6
CONTINUOUS
 62
     3
 10
1.420357064234
 20
-0.591932413569
 30
0.0
 11
1.415202764234
 21
-0.600578213569
 31
0.0
  0
LINE
  5
5A5
  8
0
  6
CONTINUOUS
 62
     3
 10
1.415202764234
 20
-0.600578213569
 30
0.0
 11
1.410229564234
 21
-0.609329513569
 31
0.0
  0
LINE
  5
5A6
  8
0
  6
CONTINUOUS
 62
     3
 10
1.410229564234
 20
-0.609329513569
 30
0.0
 11
1.405432464234
 21
-0.618178513569
 31
0.0
  0
LINE
  5
5A7
  8
0
  6
CONTINUOUS
 62
     3
 10
1.405432464234
 20
-0.618178513569
 30
0.0
 11
1.456267764234
 21
-0.688147313569
 31
0.0
  0
LINE
  5
5A8
  8
0
  6
CONTINUOUS
 62
     3
 10
1.456267764234
 20
-0.688147313569
 30
0.0
 11
1.466166064234
 21
-0.686319513569
 31
0.0
  0
LINE
  5
5A9
  8
0
  6
CONTINUOUS
 62
     3
 10
1.466166064234
 20
-0.686319513569
 30
0.0
 11
1.476025864234
 21
-0.684294013569
 31
0.0
  0
LINE
  5
5AA
  8
0
  6
CONTINUOUS
 62
     3
 10
1.476025864234
 20
-0.684294013569
 30
0.0
 11
1.485841264234
 21
-0.682063713569
 31
0.0
  0
LINE
  5
5AB
  8
0
  6
CONTINUOUS
 62
     3
 10
1.485841264234
 20
-0.682063713569
 30
0.0
 11
1.495605864234
 21
-0.679620413569
 31
0.0
  0
LINE
  5
5AC
  8
0
  6
CONTINUOUS
 62
     3
 10
1.495605864234
 20
-0.679620413569
 30
0.0
 11
1.505312064234
 21
-0.676955113569
 31
0.0
  0
LINE
  5
5AD
  8
0
  6
CONTINUOUS
 62
     3
 10
1.505312064234
 20
-0.676955113569
 30
0.0
 11
1.514951464234
 21
-0.674057113569
 31
0.0
  0
LINE
  5
5AE
  8
0
  6
CONTINUOUS
 62
     3
 10
1.514951464234
 20
-0.674057113569
 30
0.0
 11
1.524513664234
 21
-0.670914013569
 31
0.0
  0
LINE
  5
5AF
  8
0
  6
CONTINUOUS
 62
     3
 10
1.524513664234
 20
-0.670914013569
 30
0.0
 11
1.533986564234
 21
-0.667511313569
 31
0.0
  0
LINE
  5
5B0
  8
0
  6
CONTINUOUS
 62
     3
 10
1.533986564234
 20
-0.667511313569
 30
0.0
 11
1.543354864234
 21
-0.663830913569
 31
0.0
  0
LINE
  5
5B1
  8
0
  6
CONTINUOUS
 62
     3
 10
1.543354864234
 20
-0.663830913569
 30
0.0
 11
1.552599364234
 21
-0.659849513569
 31
0.0
  0
LINE
  5
5B2
  8
0
  6
CONTINUOUS
 62
     3
 10
1.552599364234
 20
-0.659849513569
 30
0.0
 11
1.561693564234
 21
-0.655536413569
 31
0.0
  0
LINE
  5
5B3
  8
0
  6
CONTINUOUS
 62
     3
 10
1.561693564234
 20
-0.655536413569
 30
0.0
 11
1.570598764234
 21
-0.650845913569
 31
0.0
  0
LINE
  5
5B4
  8
0
  6
CONTINUOUS
 62
     3
 10
1.570598764234
 20
-0.650845913569
 30
0.0
 11
1.579248464234
 21
-0.645700613569
 31
0.0
  0
LINE
  5
5B5
  8
0
  6
CONTINUOUS
 62
     3
 10
1.579248464234
 20
-0.645700613569
 30
0.0
 11
1.587457764234
 21
-0.639886013569
 31
0.0
  0
LINE
  5
5B6
  8
0
  6
CONTINUOUS
 62
     3
 10
1.587457764234
 20
-0.639886013569
 30
0.0
 11
1.607821164234
 21
-0.618793113569
 31
0.0
  0
LINE
  5
5B7
  8
0
  6
CONTINUOUS
 62
     3
 10
1.607821164234
 20
-0.618793113569
 30
0.0
 11
1.626993564234
 21
-0.605156113569
 31
0.0
  0
LINE
  5
5B8
  8
0
  6
CONTINUOUS
 62
     3
 10
1.626993564234
 20
-0.605156113569
 30
0.0
 11
1.643507664234
 21
-0.598034413569
 31
0.0
  0
LINE
  5
5B9
  8
0
  6
CONTINUOUS
 62
     3
 10
1.643507664234
 20
-0.598034413569
 30
0.0
 11
1.656481364234
 21
-0.596895713569
 31
0.0
  0
LINE
  5
5BA
  8
0
  6
CONTINUOUS
 62
     3
 10
1.656481364234
 20
-0.596895713569
 30
0.0
 11
1.665101964234
 21
-0.601111313569
 31
0.0
  0
LINE
  5
5BB
  8
0
  6
CONTINUOUS
 62
     3
 10
1.665101964234
 20
-0.601111313569
 30
0.0
 11
1.726086164234
 21
-0.662095513569
 31
0.0
  0
LINE
  5
5BC
  8
0
  6
CONTINUOUS
 62
     3
 10
1.726086164234
 20
-0.662095513569
 30
0.0
 11
1.730301764234
 21
-0.670716113569
 31
0.0
  0
LINE
  5
5BD
  8
0
  6
CONTINUOUS
 62
     3
 10
1.730301764234
 20
-0.670716113569
 30
0.0
 11
1.729163064234
 21
-0.683689813569
 31
0.0
  0
LINE
  5
5BE
  8
0
  6
CONTINUOUS
 62
     3
 10
1.729163064234
 20
-0.683689813569
 30
0.0
 11
1.722041364234
 21
-0.700203913569
 31
0.0
  0
LINE
  5
5BF
  8
0
  6
CONTINUOUS
 62
     3
 10
1.722041364234
 20
-0.700203913569
 30
0.0
 11
1.708404364234
 21
-0.719376313569
 31
0.0
  0
LINE
  5
5C0
  8
0
  6
CONTINUOUS
 62
     3
 10
1.708404364234
 20
-0.719376313569
 30
0.0
 11
1.687311464234
 21
-0.739739713569
 31
0.0
  0
LINE
  5
5C1
  8
0
  6
CONTINUOUS
 62
     3
 10
1.687311464234
 20
-0.739739713569
 30
0.0
 11
1.681496864234
 21
-0.747949013569
 31
0.0
  0
LINE
  5
5C2
  8
0
  6
CONTINUOUS
 62
     3
 10
1.681496864234
 20
-0.747949013569
 30
0.0
 11
1.676351564234
 21
-0.756598713569
 31
0.0
  0
LINE
  5
5C3
  8
0
  6
CONTINUOUS
 62
     3
 10
1.676351564234
 20
-0.756598713569
 30
0.0
 11
1.671661064234
 21
-0.765503913569
 31
0.0
  0
LINE
  5
5C4
  8
0
  6
CONTINUOUS
 62
     3
 10
1.671661064234
 20
-0.765503913569
 30
0.0
 11
1.667347964234
 21
-0.774598113569
 31
0.0
  0
LINE
  5
5C5
  8
0
  6
CONTINUOUS
 62
     3
 10
1.667347964234
 20
-0.774598113569
 30
0.0
 11
1.663366564234
 21
-0.783842613569
 31
0.0
  0
LINE
  5
5C6
  8
0
  6
CONTINUOUS
 62
     3
 10
1.663366564234
 20
-0.783842613569
 30
0.0
 11
1.659686164234
 21
-0.793210913569
 31
0.0
  0
LINE
  5
5C7
  8
0
  6
CONTINUOUS
 62
     3
 10
1.659686164234
 20
-0.793210913569
 30
0.0
 11
1.656283464234
 21
-0.802683813569
 31
0.0
  0
LINE
  5
5C8
  8
0
  6
CONTINUOUS
 62
     3
 10
1.656283464234
 20
-0.802683813569
 30
0.0
 11
1.653140364234
 21
-0.812246013569
 31
0.0
  0
LINE
  5
5C9
  8
0
  6
CONTINUOUS
 62
     3
 10
1.653140364234
 20
-0.812246013569
 30
0.0
 11
1.650242364234
 21
-0.821885413569
 31
0.0
  0
LINE
  5
5CA
  8
0
  6
CONTINUOUS
 62
     3
 10
1.650242364234
 20
-0.821885413569
 30
0.0
 11
1.647577064234
 21
-0.831591613569
 31
0.0
  0
LINE
  5
5CB
  8
0
  6
CONTINUOUS
 62
     3
 10
1.647577064234
 20
-0.831591613569
 30
0.0
 11
1.645133764234
 21
-0.841356213569
 31
0.0
  0
LINE
  5
5CC
  8
0
  6
CONTINUOUS
 62
     3
 10
1.645133764234
 20
-0.841356213569
 30
0.0
 11
1.642903464234
 21
-0.851171613569
 31
0.0
  0
LINE
  5
5CD
  8
0
  6
CONTINUOUS
 62
     3
 10
1.642903464234
 20
-0.851171613569
 30
0.0
 11
1.640877964234
 21
-0.861031413569
 31
0.0
  0
LINE
  5
5CE
  8
0
  6
CONTINUOUS
 62
     3
 10
1.640877964234
 20
-0.861031413569
 30
0.0
 11
1.639050164234
 21
-0.870929713569
 31
0.0
  0
LINE
  5
5CF
  8
0
  6
CONTINUOUS
 62
     3
 10
1.639050164234
 20
-0.870929713569
 30
0.0
 11
1.709018964234
 21
-0.921765013569
 31
0.0
  0
LINE
  5
5D0
  8
0
  6
CONTINUOUS
 62
     3
 10
1.709018964234
 20
-0.921765013569
 30
0.0
 11
1.717867964234
 21
-0.916967913569
 31
0.0
  0
LINE
  5
5D1
  8
0
  6
CONTINUOUS
 62
     3
 10
1.717867964234
 20
-0.916967913569
 30
0.0
 11
1.726619264234
 21
-0.911994713569
 31
0.0
  0
LINE
  5
5D2
  8
0
  6
CONTINUOUS
 62
     3
 10
1.726619264234
 20
-0.911994713569
 30
0.0
 11
1.735265064234
 21
-0.906840413569
 31
0.0
  0
LINE
  5
5D3
  8
0
  6
CONTINUOUS
 62
     3
 10
1.735265064234
 20
-0.906840413569
 30
0.0
 11
1.743796664234
 21
-0.901499313569
 31
0.0
  0
LINE
  5
5D4
  8
0
  6
CONTINUOUS
 62
     3
 10
1.743796664234
 20
-0.901499313569
 30
0.0
 11
1.752204264234
 21
-0.895965013569
 31
0.0
  0
LINE
  5
5D5
  8
0
  6
CONTINUOUS
 62
     3
 10
1.752204264234
 20
-0.895965013569
 30
0.0
 11
1.760476264234
 21
-0.890230113569
 31
0.0
  0
LINE
  5
5D6
  8
0
  6
CONTINUOUS
 62
     3
 10
1.760476264234
 20
-0.890230113569
 30
0.0
 11
1.768599264234
 21
-0.884286113569
 31
0.0
  0
LINE
  5
5D7
  8
0
  6
CONTINUOUS
 62
     3
 10
1.768599264234
 20
-0.884286113569
 30
0.0
 11
1.776556964234
 21
-0.878122613569
 31
0.0
  0
LINE
  5
5D8
  8
0
  6
CONTINUOUS
 62
     3
 10
1.776556964234
 20
-0.878122613569
 30
0.0
 11
1.784329564234
 21
-0.871727313569
 31
0.0
  0
LINE
  5
5D9
  8
0
  6
CONTINUOUS
 62
     3
 10
1.784329564234
 20
-0.871727313569
 30
0.0
 11
1.791891264234
 21
-0.865084113569
 31
0.0
  0
LINE
  5
5DA
  8
0
  6
CONTINUOUS
 62
     3
 10
1.791891264234
 20
-0.865084113569
 30
0.0
 11
1.799207464234
 21
-0.858171813569
 31
0.0
  0
LINE
  5
5DB
  8
0
  6
CONTINUOUS
 62
     3
 10
1.799207464234
 20
-0.858171813569
 30
0.0
 11
1.806227464234
 21
-0.850959113569
 31
0.0
  0
LINE
  5
5DC
  8
0
  6
CONTINUOUS
 62
     3
 10
1.806227464234
 20
-0.850959113569
 30
0.0
 11
1.812863764234
 21
-0.843392713569
 31
0.0
  0
LINE
  5
5DD
  8
0
  6
CONTINUOUS
 62
     3
 10
1.812863764234
 20
-0.843392713569
 30
0.0
 11
1.818874564234
 21
-0.835325813569
 31
0.0
  0
LINE
  5
5DE
  8
0
  6
CONTINUOUS
 62
     3
 10
1.818874564234
 20
-0.835325813569
 30
0.0
 11
1.831723164234
 21
-0.808972713569
 31
0.0
  0
LINE
  5
5DF
  8
0
  6
CONTINUOUS
 62
     3
 10
1.831723164234
 20
-0.808972713569
 30
0.0
 11
1.845743064234
 21
-0.790078513569
 31
0.0
  0
LINE
  5
5E0
  8
0
  6
CONTINUOUS
 62
     3
 10
1.845743064234
 20
-0.790078513569
 30
0.0
 11
1.859248264234
 21
-0.778202213569
 31
0.0
  0
LINE
  5
5E1
  8
0
  6
CONTINUOUS
 62
     3
 10
1.859248264234
 20
-0.778202213569
 30
0.0
 11
1.871235064234
 21
-0.773110213569
 31
0.0
  0
LINE
  5
5E2
  8
0
  6
CONTINUOUS
 62
     3
 10
1.871235064234
 20
-0.773110213569
 30
0.0
 11
1.880736464234
 21
-0.774455513569
 31
0.0
  0
LINE
  5
5E3
  8
0
  6
CONTINUOUS
 62
     3
 10
1.880736464234
 20
-0.774455513569
 30
0.0
 11
1.957581064234
 21
-0.813609713569
 31
0.0
  0
LINE
  5
5E4
  8
0
  6
CONTINUOUS
 62
     3
 10
1.957581064234
 20
-0.813609713569
 30
0.0
 11
1.964254264234
 21
-0.820505813569
 31
0.0
  0
LINE
  5
5E5
  8
0
  6
CONTINUOUS
 62
     3
 10
1.964254264234
 20
-0.820505813569
 30
0.0
 11
1.967180364234
 21
-0.833196413569
 31
0.0
  0
LINE
  5
5E6
  8
0
  6
CONTINUOUS
 62
     3
 10
1.967180364234
 20
-0.833196413569
 30
0.0
 11
1.965510364234
 21
-0.851103013569
 31
0.0
  0
LINE
  5
5E7
  8
0
  6
CONTINUOUS
 62
     3
 10
1.965510364234
 20
-0.851103013569
 30
0.0
 11
1.958465364234
 21
-0.873551113569
 31
0.0
  0
LINE
  5
5E8
  8
0
  6
CONTINUOUS
 62
     3
 10
1.958465364234
 20
-0.873551113569
 30
0.0
 11
1.944697464234
 21
-0.899435813569
 31
0.0
  0
LINE
  5
5E9
  8
0
  6
CONTINUOUS
 62
     3
 10
1.944697464234
 20
-0.899435813569
 30
0.0
 11
1.941704264234
 21
-0.909040213569
 31
0.0
  0
LINE
  5
5EA
  8
0
  6
CONTINUOUS
 62
     3
 10
1.941704264234
 20
-0.909040213569
 30
0.0
 11
1.939483664234
 21
-0.918856513569
 31
0.0
  0
LINE
  5
5EB
  8
0
  6
CONTINUOUS
 62
     3
 10
1.939483664234
 20
-0.918856513569
 30
0.0
 11
1.937774664234
 21
-0.928775313569
 31
0.0
  0
LINE
  5
5EC
  8
0
  6
CONTINUOUS
 62
     3
 10
1.937774664234
 20
-0.928775313569
 30
0.0
 11
1.936482864234
 21
-0.938757213569
 31
0.0
  0
LINE
  5
5ED
  8
0
  6
CONTINUOUS
 62
     3
 10
1.936482864234
 20
-0.938757213569
 30
0.0
 11
1.935553064234
 21
-0.948779513569
 31
0.0
  0
LINE
  5
5EE
  8
0
  6
CONTINUOUS
 62
     3
 10
1.935553064234
 20
-0.948779513569
 30
0.0
 11
1.934947764234
 21
-0.958826713569
 31
0.0
  0
LINE
  5
5EF
  8
0
  6
CONTINUOUS
 62
     3
 10
1.934947764234
 20
-0.958826713569
 30
0.0
 11
1.934638864234
 21
-0.968887413569
 31
0.0
  0
LINE
  5
5F0
  8
0
  6
CONTINUOUS
 62
     3
 10
1.934638864234
 20
-0.968887413569
 30
0.0
 11
1.934604564234
 21
-0.978952913569
 31
0.0
  0
LINE
  5
5F1
  8
0
  6
CONTINUOUS
 62
     3
 10
1.934604564234
 20
-0.978952913569
 30
0.0
 11
1.934827064234
 21
-0.989016013569
 31
0.0
  0
LINE
  5
5F2
  8
0
  6
CONTINUOUS
 62
     3
 10
1.934827064234
 20
-0.989016013569
 30
0.0
 11
1.935291564234
 21
-0.999070913569
 31
0.0
  0
LINE
  5
5F3
  8
0
  6
CONTINUOUS
 62
     3
 10
1.935291564234
 20
-0.999070913569
 30
0.0
 11
1.935985364234
 21
-1.009112513569
 31
0.0
  0
LINE
  5
5F4
  8
0
  6
CONTINUOUS
 62
     3
 10
1.935985364234
 20
-1.009112513569
 30
0.0
 11
1.936897264234
 21
-1.019136713569
 31
0.0
  0
LINE
  5
5F5
  8
0
  6
CONTINUOUS
 62
     3
 10
1.936897264234
 20
-1.019136713569
 30
0.0
 11
1.938017764234
 21
-1.029139813569
 31
0.0
  0
LINE
  5
5F6
  8
0
  6
CONTINUOUS
 62
     3
 10
1.938017764234
 20
-1.029139813569
 30
0.0
 11
1.939338164234
 21
-1.039118513569
 31
0.0
  0
LINE
  5
5F7
  8
0
  6
CONTINUOUS
 62
     3
 10
1.939338164234
 20
-1.039118513569
 30
0.0
 11
2.021591464234
 21
-1.065844213569
 31
0.0
  0
LINE
  5
5F8
  8
0
  6
CONTINUOUS
 62
     3
 10
2.021591464234
 20
-1.065844213569
 30
0.0
 11
2.028524964234
 21
-1.058547413569
 31
0.0
  0
LINE
  5
5F9
  8
0
  6
CONTINUOUS
 62
     3
 10
2.028524964234
 20
-1.058547413569
 30
0.0
 11
2.035311164234
 21
-1.051113313569
 31
0.0
  0
LINE
  5
5FA
  8
0
  6
CONTINUOUS
 62
     3
 10
2.035311164234
 20
-1.051113313569
 30
0.0
 11
2.041941064234
 21
-1.043539613569
 31
0.0
  0
LINE
  5
5FB
  8
0
  6
CONTINUOUS
 62
     3
 10
2.041941064234
 20
-1.043539613569
 30
0.0
 11
2.048404564234
 21
-1.035823513569
 31
0.0
  0
LINE
  5
5FC
  8
0
  6
CONTINUOUS
 62
     3
 10
2.048404564234
 20
-1.035823513569
 30
0.0
 11
2.054690464234
 21
-1.027962013569
 31
0.0
  0
LINE
  5
5FD
  8
0
  6
CONTINUOUS
 62
     3
 10
2.054690464234
 20
-1.027962013569
 30
0.0
 11
2.060785464234
 21
-1.019951613569
 31
0.0
  0
LINE
  5
5FE
  8
0
  6
CONTINUOUS
 62
     3
 10
2.060785464234
 20
-1.019951613569
 30
0.0
 11
2.066674064234
 21
-1.011788313569
 31
0.0
  0
LINE
  5
5FF
  8
0
  6
CONTINUOUS
 62
     3
 10
2.066674064234
 20
-1.011788313569
 30
0.0
 11
2.072337664234
 21
-1.003467413569
 31
0.0
  0
LINE
  5
600
  8
0
  6
CONTINUOUS
 62
     3
 10
2.072337664234
 20
-1.003467413569
 30
0.0
 11
2.077753564234
 21
-0.994983213569
 31
0.0
  0
LINE
  5
601
  8
0
  6
CONTINUOUS
 62
     3
 10
2.077753564234
 20
-0.994983213569
 30
0.0
 11
2.082892264234
 21
-0.986328513569
 31
0.0
  0
LINE
  5
602
  8
0
  6
CONTINUOUS
 62
     3
 10
2.082892264234
 20
-0.986328513569
 30
0.0
 11
2.087714464234
 21
-0.977493713569
 31
0.0
  0
LINE
  5
603
  8
0
  6
CONTINUOUS
 62
     3
 10
2.087714464234
 20
-0.977493713569
 30
0.0
 11
2.092161964234
 21
-0.968464713569
 31
0.0
  0
LINE
  5
604
  8
0
  6
CONTINUOUS
 62
     3
 10
2.092161964234
 20
-0.968464713569
 30
0.0
 11
2.096135364234
 21
-0.959217913569
 31
0.0
  0
LINE
  5
605
  8
0
  6
CONTINUOUS
 62
     3
 10
2.096135364234
 20
-0.959217913569
 30
0.0
 11
2.099359164234
 21
-0.949688513569
 31
0.0
  0
LINE
  5
606
  8
0
  6
CONTINUOUS
 62
     3
 10
2.099359164234
 20
-0.949688513569
 30
0.0
 11
2.103435264234
 21
-0.920654713569
 31
0.0
  0
LINE
  5
607
  8
0
  6
CONTINUOUS
 62
     3
 10
2.103435264234
 20
-0.920654713569
 30
0.0
 11
2.110930464234
 21
-0.898352813569
 31
0.0
  0
LINE
  5
608
  8
0
  6
CONTINUOUS
 62
     3
 10
2.110930464234
 20
-0.898352813569
 30
0.0
 11
2.120104664234
 21
-0.882884513569
 31
0.0
  0
LINE
  5
609
  8
0
  6
CONTINUOUS
 62
     3
 10
2.120104664234
 20
-0.882884513569
 30
0.0
 11
2.129931264234
 21
-0.874337513569
 31
0.0
  0
LINE
  5
60A
  8
0
  6
CONTINUOUS
 62
     3
 10
2.129931264234
 20
-0.874337513569
 30
0.0
 11
2.139383364234
 21
-0.872680913569
 31
0.0
  0
LINE
  5
60B
  8
0
  6
CONTINUOUS
 62
     3
 10
2.139383364234
 20
-0.872680913569
 30
0.0
 11
2.224566264234
 21
-0.886172513569
 31
0.0
  0
LINE
  5
60C
  8
0
  6
CONTINUOUS
 62
     3
 10
2.224566264234
 20
-0.886172513569
 30
0.0
 11
2.233043764234
 21
-0.890669013569
 31
0.0
  0
LINE
  5
60D
  8
0
  6
CONTINUOUS
 62
     3
 10
2.233043764234
 20
-0.890669013569
 30
0.0
 11
2.239748364234
 21
-0.901834213569
 31
0.0
  0
LINE
  5
60E
  8
0
  6
CONTINUOUS
 62
     3
 10
2.239748364234
 20
-0.901834213569
 30
0.0
 11
2.243693464234
 21
-0.919380413569
 31
0.0
  0
LINE
  5
60F
  8
0
  6
CONTINUOUS
 62
     3
 10
2.243693464234
 20
-0.919380413569
 30
0.0
 11
2.243930164234
 21
-0.942906913569
 31
0.0
  0
LINE
  5
610
  8
0
  6
CONTINUOUS
 62
     3
 10
2.243930164234
 20
-0.942906913569
 30
0.0
 11
2.238834864234
 21
-0.971779213569
 31
0.0
  0
LINE
  5
611
  8
0
  6
CONTINUOUS
 62
     3
 10
2.238834864234
 20
-0.971779213569
 30
0.0
 11
2.238956164234
 21
-0.981838513569
 31
0.0
  0
LINE
  5
612
  8
0
  6
CONTINUOUS
 62
     3
 10
2.238956164234
 20
-0.981838513569
 30
0.0
 11
2.239877664234
 21
-0.991860613569
 31
0.0
  0
LINE
  5
613
  8
0
  6
CONTINUOUS
 62
     3
 10
2.239877664234
 20
-0.991860613569
 30
0.0
 11
2.241317364234
 21
-1.001822013569
 31
0.0
  0
LINE
  5
614
  8
0
  6
CONTINUOUS
 62
     3
 10
2.241317364234
 20
-1.001822013569
 30
0.0
 11
2.243173364234
 21
-1.011714613569
 31
0.0
  0
LINE
  5
615
  8
0
  6
CONTINUOUS
 62
     3
 10
2.243173364234
 20
-1.011714613569
 30
0.0
 11
2.245386164234
 21
-1.021533613569
 31
0.0
  0
LINE
  5
616
  8
0
  6
CONTINUOUS
 62
     3
 10
2.245386164234
 20
-1.021533613569
 30
0.0
 11
2.247915164234
 21
-1.031276213569
 31
0.0
  0
LINE
  5
617
  8
0
  6
CONTINUOUS
 62
     3
 10
2.247915164234
 20
-1.031276213569
 30
0.0
 11
2.250730364234
 21
-1.040939913569
 31
0.0
  0
LINE
  5
618
  8
0
  6
CONTINUOUS
 62
     3
 10
2.250730364234
 20
-1.040939913569
 30
0.0
 11
2.253808164234
 21
-1.050523413569
 31
0.0
  0
LINE
  5
619
  8
0
  6
CONTINUOUS
 62
     3
 10
2.253808164234
 20
-1.050523413569
 30
0.0
 11
2.257129464234
 21
-1.060025213569
 31
0.0
  0
LINE
  5
61A
  8
0
  6
CONTINUOUS
 62
     3
 10
2.257129464234
 20
-1.060025213569
 30
0.0
 11
2.260678364234
 21
-1.069444413569
 31
0.0
  0
LINE
  5
61B
  8
0
  6
CONTINUOUS
 62
     3
 10
2.260678364234
 20
-1.069444413569
 30
0.0
 11
2.264441164234
 21
-1.078780213569
 31
0.0
  0
LINE
  5
61C
  8
0
  6
CONTINUOUS
 62
     3
 10
2.264441164234
 20
-1.078780213569
 30
0.0
 11
2.268406164234
 21
-1.088032013569
 31
0.0
  0
LINE
  5
61D
  8
0
  6
CONTINUOUS
 62
     3
 10
2.268406164234
 20
-1.088032013569
 30
0.0
 11
2.272562964234
 21
-1.097199213569
 31
0.0
  0
LINE
  5
61E
  8
0
  6
CONTINUOUS
 62
     3
 10
2.272562964234
 20
-1.097199213569
 30
0.0
 11
2.276902264234
 21
-1.106281513569
 31
0.0
  0
LINE
  5
61F
  8
0
  6
CONTINUOUS
 62
     3
 10
2.276902264234
 20
-1.106281513569
 30
0.0
 11
2.363388464234
 21
-1.106281513569
 31
0.0
  0
LINE
  5
620
  8
0
  6
CONTINUOUS
 62
     3
 10
2.363388464234
 20
-1.106281513569
 30
0.0
 11
2.367727764234
 21
-1.097199213569
 31
0.0
  0
LINE
  5
621
  8
0
  6
CONTINUOUS
 62
     3
 10
2.367727764234
 20
-1.097199213569
 30
0.0
 11
2.371884564234
 21
-1.088032013569
 31
0.0
  0
LINE
  5
622
  8
0
  6
CONTINUOUS
 62
     3
 10
2.371884564234
 20
-1.088032013569
 30
0.0
 11
2.375849564234
 21
-1.078780213569
 31
0.0
  0
LINE
  5
623
  8
0
  6
CONTINUOUS
 62
     3
 10
2.375849564234
 20
-1.078780213569
 30
0.0
 11
2.379612364234
 21
-1.069444413569
 31
0.0
  0
LINE
  5
624
  8
0
  6
CONTINUOUS
 62
     3
 10
2.379612364234
 20
-1.069444413569
 30
0.0
 11
2.383161264234
 21
-1.060025213569
 31
0.0
  0
LINE
  5
625
  8
0
  6
CONTINUOUS
 62
     3
 10
2.383161264234
 20
-1.060025213569
 30
0.0
 11
2.386482564234
 21
-1.050523413569
 31
0.0
  0
LINE
  5
626
  8
0
  6
CONTINUOUS
 62
     3
 10
2.386482564234
 20
-1.050523413569
 30
0.0
 11
2.389560364234
 21
-1.040939913569
 31
0.0
  0
LINE
  5
627
  8
0
  6
CONTINUOUS
 62
     3
 10
2.389560364234
 20
-1.040939913569
 30
0.0
 11
2.392375564234
 21
-1.031276213569
 31
0.0
  0
LINE
  5
628
  8
0
  6
CONTINUOUS
 62
     3
 10
2.392375564234
 20
-1.031276213569
 30
0.0
 11
2.394904564234
 21
-1.021533613569
 31
0.0
  0
LINE
  5
629
  8
0
  6
CONTINUOUS
 62
     3
 10
2.394904564234
 20
-1.021533613569
 30
0.0
 11
2.397117364234
 21
-1.011714613569
 31
0.0
  0
LINE
  5
62A
  8
0
  6
CONTINUOUS
 62
     3
 10
2.397117364234
 20
-1.011714613569
 30
0.0
 11
2.398973364234
 21
-1.001822013569
 31
0.0
  0
LINE
  5
62B
  8
0
  6
CONTINUOUS
 62
     3
 10
2.398973364234
 20
-1.001822013569
 30
0.0
 11
2.400413064234
 21
-0.991860613569
 31
0.0
  0
LINE
  5
62C
  8
0
  6
CONTINUOUS
 62
     3
 10
2.400413064234
 20
-0.991860613569
 30
0.0
 11
2.401334564234
 21
-0.981838513569
 31
0.0
  0
LINE
  5
62D
  8
0
  6
CONTINUOUS
 62
     3
 10
2.401334564234
 20
-0.981838513569
 30
0.0
 11
2.401455864234
 21
-0.971779213569
 31
0.0
  0
LINE
  5
62E
  8
0
  6
CONTINUOUS
 62
     3
 10
2.401455864234
 20
-0.971779213569
 30
0.0
 11
2.396360564234
 21
-0.942906913569
 31
0.0
  0
LINE
  5
62F
  8
0
  6
CONTINUOUS
 62
     3
 10
2.396360564234
 20
-0.942906913569
 30
0.0
 11
2.396597264234
 21
-0.919380413569
 31
0.0
  0
LINE
  5
630
  8
0
  6
CONTINUOUS
 62
     3
 10
2.396597264234
 20
-0.919380413569
 30
0.0
 11
2.400542364234
 21
-0.901834213569
 31
0.0
  0
LINE
  5
631
  8
0
  6
CONTINUOUS
 62
     3
 10
2.400542364234
 20
-0.901834213569
 30
0.0
 11
2.407246964234
 21
-0.890669013569
 31
0.0
  0
LINE
  5
632
  8
0
  6
CONTINUOUS
 62
     3
 10
2.407246964234
 20
-0.890669013569
 30
0.0
 11
2.415724464234
 21
-0.886172513569
 31
0.0
  0
LINE
  5
633
  8
0
  6
CONTINUOUS
 62
     3
 10
2.415724464234
 20
-0.886172513569
 30
0.0
 11
2.500907364234
 21
-0.872680913569
 31
0.0
  0
LINE
  5
634
  8
0
  6
CONTINUOUS
 62
     3
 10
2.500907364234
 20
-0.872680913569
 30
0.0
 11
2.510359464234
 21
-0.874337513569
 31
0.0
  0
LINE
  5
635
  8
0
  6
CONTINUOUS
 62
     3
 10
2.510359464234
 20
-0.874337513569
 30
0.0
 11
2.520186064234
 21
-0.882884513569
 31
0.0
  0
LINE
  5
636
  8
0
  6
CONTINUOUS
 62
     3
 10
2.520186064234
 20
-0.882884513569
 30
0.0
 11
2.529360264234
 21
-0.898352813569
 31
0.0
  0
LINE
  5
637
  8
0
  6
CONTINUOUS
 62
     3
 10
2.529360264234
 20
-0.898352813569
 30
0.0
 11
2.536855464234
 21
-0.920654713569
 31
0.0
  0
LINE
  5
638
  8
0
  6
CONTINUOUS
 62
     3
 10
2.536855464234
 20
-0.920654713569
 30
0.0
 11
2.540931564234
 21
-0.949688513569
 31
0.0
  0
LINE
  5
639
  8
0
  6
CONTINUOUS
 62
     3
 10
2.540931564234
 20
-0.949688513569
 30
0.0
 11
2.544155364234
 21
-0.959217913569
 31
0.0
  0
LINE
  5
63A
  8
0
  6
CONTINUOUS
 62
     3
 10
2.544155364234
 20
-0.959217913569
 30
0.0
 11
2.548128764234
 21
-0.968464713569
 31
0.0
  0
LINE
  5
63B
  8
0
  6
CONTINUOUS
 62
     3
 10
2.548128764234
 20
-0.968464713569
 30
0.0
 11
2.552576264234
 21
-0.977493713569
 31
0.0
  0
LINE
  5
63C
  8
0
  6
CONTINUOUS
 62
     3
 10
2.552576264234
 20
-0.977493713569
 30
0.0
 11
2.557398464234
 21
-0.986328513569
 31
0.0
  0
LINE
  5
63D
  8
0
  6
CONTINUOUS
 62
     3
 10
2.557398464234
 20
-0.986328513569
 30
0.0
 11
2.562537164234
 21
-0.994983213569
 31
0.0
  0
LINE
  5
63E
  8
0
  6
CONTINUOUS
 62
     3
 10
2.562537164234
 20
-0.994983213569
 30
0.0
 11
2.567953064234
 21
-1.003467413569
 31
0.0
  0
LINE
  5
63F
  8
0
  6
CONTINUOUS
 62
     3
 10
2.567953064234
 20
-1.003467413569
 30
0.0
 11
2.573616664234
 21
-1.011788313569
 31
0.0
  0
LINE
  5
640
  8
0
  6
CONTINUOUS
 62
     3
 10
2.573616664234
 20
-1.011788313569
 30
0.0
 11
2.579505264234
 21
-1.019951613569
 31
0.0
  0
LINE
  5
641
  8
0
  6
CONTINUOUS
 62
     3
 10
2.579505264234
 20
-1.019951613569
 30
0.0
 11
2.585600264234
 21
-1.027962013569
 31
0.0
  0
LINE
  5
642
  8
0
  6
CONTINUOUS
 62
     3
 10
2.585600264234
 20
-1.027962013569
 30
0.0
 11
2.591886164234
 21
-1.035823513569
 31
0.0
  0
LINE
  5
643
  8
0
  6
CONTINUOUS
 62
     3
 10
2.591886164234
 20
-1.035823513569
 30
0.0
 11
2.598349664234
 21
-1.043539613569
 31
0.0
  0
LINE
  5
644
  8
0
  6
CONTINUOUS
 62
     3
 10
2.598349664234
 20
-1.043539613569
 30
0.0
 11
2.604979564234
 21
-1.051113313569
 31
0.0
  0
LINE
  5
645
  8
0
  6
CONTINUOUS
 62
     3
 10
2.604979564234
 20
-1.051113313569
 30
0.0
 11
2.611765764234
 21
-1.058547413569
 31
0.0
  0
LINE
  5
646
  8
0
  6
CONTINUOUS
 62
     3
 10
2.611765764234
 20
-1.058547413569
 30
0.0
 11
2.618699264234
 21
-1.065844213569
 31
0.0
  0
LINE
  5
647
  8
0
  6
CONTINUOUS
 62
     3
 10
2.618699264234
 20
-1.065844213569
 30
0.0
 11
2.700952564234
 21
-1.039118513569
 31
0.0
  0
LINE
  5
648
  8
0
  6
CONTINUOUS
 62
     3
 10
2.700952564234
 20
-1.039118513569
 30
0.0
 11
2.702272964234
 21
-1.029139813569
 31
0.0
  0
LINE
  5
649
  8
0
  6
CONTINUOUS
 62
     3
 10
2.702272964234
 20
-1.029139813569
 30
0.0
 11
2.703393464234
 21
-1.019136713569
 31
0.0
  0
LINE
  5
64A
  8
0
  6
CONTINUOUS
 62
     3
 10
2.703393464234
 20
-1.019136713569
 30
0.0
 11
2.704305364234
 21
-1.009112513569
 31
0.0
  0
LINE
  5
64B
  8
0
  6
CONTINUOUS
 62
     3
 10
2.704305364234
 20
-1.009112513569
 30
0.0
 11
2.704999164234
 21
-0.999070913569
 31
0.0
  0
LINE
  5
64C
  8
0
  6
CONTINUOUS
 62
     3
 10
2.704999164234
 20
-0.999070913569
 30
0.0
 11
2.705463664234
 21
-0.989016013569
 31
0.0
  0
LINE
  5
64D
  8
0
  6
CONTINUOUS
 62
     3
 10
2.705463664234
 20
-0.989016013569
 30
0.0
 11
2.705686164234
 21
-0.978952913569
 31
0.0
  0
LINE
  5
64E
  8
0
  6
CONTINUOUS
 62
     3
 10
2.705686164234
 20
-0.978952913569
 30
0.0
 11
2.705651864234
 21
-0.968887413569
 31
0.0
  0
LINE
  5
64F
  8
0
  6
CONTINUOUS
 62
     3
 10
2.705651864234
 20
-0.968887413569
 30
0.0
 11
2.705342964234
 21
-0.958826713569
 31
0.0
  0
LINE
  5
650
  8
0
  6
CONTINUOUS
 62
     3
 10
2.705342964234
 20
-0.958826713569
 30
0.0
 11
2.704737664234
 21
-0.948779513569
 31
0.0
  0
LINE
  5
651
  8
0
  6
CONTINUOUS
 62
     3
 10
2.704737664234
 20
-0.948779513569
 30
0.0
 11
2.703807864234
 21
-0.938757213569
 31
0.0
  0
LINE
  5
652
  8
0
  6
CONTINUOUS
 62
     3
 10
2.703807864234
 20
-0.938757213569
 30
0.0
 11
2.702516064234
 21
-0.928775313569
 31
0.0
  0
LINE
  5
653
  8
0
  6
CONTINUOUS
 62
     3
 10
2.702516064234
 20
-0.928775313569
 30
0.0
 11
2.700807064234
 21
-0.918856513569
 31
0.0
  0
LINE
  5
654
  8
0
  6
CONTINUOUS
 62
     3
 10
2.700807064234
 20
-0.918856513569
 30
0.0
 11
2.698586464234
 21
-0.909040213569
 31
0.0
  0
LINE
  5
655
  8
0
  6
CONTINUOUS
 62
     3
 10
2.698586464234
 20
-0.909040213569
 30
0.0
 11
2.695593264234
 21
-0.899435813569
 31
0.0
  0
LINE
  5
656
  8
0
  6
CONTINUOUS
 62
     3
 10
2.695593264234
 20
-0.899435813569
 30
0.0
 11
2.681825364234
 21
-0.873551113569
 31
0.0
  0
LINE
  5
657
  8
0
  6
CONTINUOUS
 62
     3
 10
2.681825364234
 20
-0.873551113569
 30
0.0
 11
2.674780364234
 21
-0.851103013569
 31
0.0
  0
LINE
  5
658
  8
0
  6
CONTINUOUS
 62
     3
 10
2.674780364234
 20
-0.851103013569
 30
0.0
 11
2.673110364234
 21
-0.833196413569
 31
0.0
  0
LINE
  5
659
  8
0
  6
CONTINUOUS
 62
     3
 10
2.673110364234
 20
-0.833196413569
 30
0.0
 11
2.676036464234
 21
-0.820505813569
 31
0.0
  0
LINE
  5
65A
  8
0
  6
CONTINUOUS
 62
     3
 10
2.676036464234
 20
-0.820505813569
 30
0.0
 11
2.682709664234
 21
-0.813609713569
 31
0.0
  0
LINE
  5
65B
  8
0
  6
CONTINUOUS
 62
     3
 10
2.682709664234
 20
-0.813609713569
 30
0.0
 11
2.759554264234
 21
-0.774455513569
 31
0.0
  0
LINE
  5
65C
  8
0
  6
CONTINUOUS
 62
     3
 10
2.759554264234
 20
-0.774455513569
 30
0.0
 11
2.769055664234
 21
-0.773110213569
 31
0.0
  0
LINE
  5
65D
  8
0
  6
CONTINUOUS
 62
     3
 10
2.769055664234
 20
-0.773110213569
 30
0.0
 11
2.781042464234
 21
-0.778202213569
 31
0.0
  0
LINE
  5
65E
  8
0
  6
CONTINUOUS
 62
     3
 10
2.781042464234
 20
-0.778202213569
 30
0.0
 11
2.794547664234
 21
-0.790078513569
 31
0.0
  0
LINE
  5
65F
  8
0
  6
CONTINUOUS
 62
     3
 10
2.794547664234
 20
-0.790078513569
 30
0.0
 11
2.808567564234
 21
-0.808972713569
 31
0.0
  0
LINE
  5
660
  8
0
  6
CONTINUOUS
 62
     3
 10
2.808567564234
 20
-0.808972713569
 30
0.0
 11
2.821416164234
 21
-0.835325813569
 31
0.0
  0
LINE
  5
661
  8
0
  6
CONTINUOUS
 62
     3
 10
2.821416164234
 20
-0.835325813569
 30
0.0
 11
2.827426964234
 21
-0.843392713569
 31
0.0
  0
LINE
  5
662
  8
0
  6
CONTINUOUS
 62
     3
 10
2.827426964234
 20
-0.843392713569
 30
0.0
 11
2.834063264234
 21
-0.850959113569
 31
0.0
  0
LINE
  5
663
  8
0
  6
CONTINUOUS
 62
     3
 10
2.834063264234
 20
-0.850959113569
 30
0.0
 11
2.841083264234
 21
-0.858171813569
 31
0.0
  0
LINE
  5
664
  8
0
  6
CONTINUOUS
 62
     3
 10
2.841083264234
 20
-0.858171813569
 30
0.0
 11
2.848399464234
 21
-0.865084113569
 31
0.0
  0
LINE
  5
665
  8
0
  6
CONTINUOUS
 62
     3
 10
2.848399464234
 20
-0.865084113569
 30
0.0
 11
2.855961164234
 21
-0.871727313569
 31
0.0
  0
LINE
  5
666
  8
0
  6
CONTINUOUS
 62
     3
 10
2.855961164234
 20
-0.871727313569
 30
0.0
 11
2.863733764234
 21
-0.878122613569
 31
0.0
  0
LINE
  5
667
  8
0
  6
CONTINUOUS
 62
     3
 10
2.863733764234
 20
-0.878122613569
 30
0.0
 11
2.871691464234
 21
-0.884286113569
 31
0.0
  0
LINE
  5
668
  8
0
  6
CONTINUOUS
 62
     3
 10
2.871691464234
 20
-0.884286113569
 30
0.0
 11
2.879814464234
 21
-0.890230113569
 31
0.0
  0
LINE
  5
669
  8
0
  6
CONTINUOUS
 62
     3
 10
2.879814464234
 20
-0.890230113569
 30
0.0
 11
2.888086464234
 21
-0.895965013569
 31
0.0
  0
LINE
  5
66A
  8
0
  6
CONTINUOUS
 62
     3
 10
2.888086464234
 20
-0.895965013569
 30
0.0
 11
2.896494064234
 21
-0.901499313569
 31
0.0
  0
LINE
  5
66B
  8
0
  6
CONTINUOUS
 62
     3
 10
2.896494064234
 20
-0.901499313569
 30
0.0
 11
2.905025664234
 21
-0.906840413569
 31
0.0
  0
LINE
  5
66C
  8
0
  6
CONTINUOUS
 62
     3
 10
2.905025664234
 20
-0.906840413569
 30
0.0
 11
2.913671464234
 21
-0.911994713569
 31
0.0
  0
LINE
  5
66D
  8
0
  6
CONTINUOUS
 62
     3
 10
2.913671464234
 20
-0.911994713569
 30
0.0
 11
2.922422764234
 21
-0.916967913569
 31
0.0
  0
LINE
  5
66E
  8
0
  6
CONTINUOUS
 62
     3
 10
2.922422764234
 20
-0.916967913569
 30
0.0
 11
2.931271764234
 21
-0.921765013569
 31
0.0
  0
LINE
  5
66F
  8
0
  6
CONTINUOUS
 62
     3
 10
2.931271764234
 20
-0.921765013569
 30
0.0
 11
3.001240564234
 21
-0.870929713569
 31
0.0
  0
LINE
  5
670
  8
0
  6
CONTINUOUS
 62
     3
 10
3.001240564234
 20
-0.870929713569
 30
0.0
 11
2.999412764234
 21
-0.861031413569
 31
0.0
  0
LINE
  5
671
  8
0
  6
CONTINUOUS
 62
     3
 10
2.999412764234
 20
-0.861031413569
 30
0.0
 11
2.997387264234
 21
-0.851171613569
 31
0.0
  0
LINE
  5
672
  8
0
  6
CONTINUOUS
 62
     3
 10
2.997387264234
 20
-0.851171613569
 30
0.0
 11
2.995156964234
 21
-0.841356213569
 31
0.0
  0
LINE
  5
673
  8
0
  6
CONTINUOUS
 62
     3
 10
2.995156964234
 20
-0.841356213569
 30
0.0
 11
2.992713664234
 21
-0.831591613569
 31
0.0
  0
LINE
  5
674
  8
0
  6
CONTINUOUS
 62
     3
 10
2.992713664234
 20
-0.831591613569
 30
0.0
 11
2.990048364234
 21
-0.821885413569
 31
0.0
  0
LINE
  5
675
  8
0
  6
CONTINUOUS
 62
     3
 10
2.990048364234
 20
-0.821885413569
 30
0.0
 11
2.987150364234
 21
-0.812246013569
 31
0.0
  0
LINE
  5
676
  8
0
  6
CONTINUOUS
 62
     3
 10
2.987150364234
 20
-0.812246013569
 30
0.0
 11
2.984007264234
 21
-0.802683813569
 31
0.0
  0
LINE
  5
677
  8
0
  6
CONTINUOUS
 62
     3
 10
2.984007264234
 20
-0.802683813569
 30
0.0
 11
2.980604564234
 21
-0.793210913569
 31
0.0
  0
LINE
  5
678
  8
0
  6
CONTINUOUS
 62
     3
 10
2.980604564234
 20
-0.793210913569
 30
0.0
 11
2.976924164234
 21
-0.783842613569
 31
0.0
  0
LINE
  5
679
  8
0
  6
CONTINUOUS
 62
     3
 10
2.976924164234
 20
-0.783842613569
 30
0.0
 11
2.972942764234
 21
-0.774598113569
 31
0.0
  0
LINE
  5
67A
  8
0
  6
CONTINUOUS
 62
     3
 10
2.972942764234
 20
-0.774598113569
 30
0.0
 11
2.968629664234
 21
-0.765503913569
 31
0.0
  0
LINE
  5
67B
  8
0
  6
CONTINUOUS
 62
     3
 10
2.968629664234
 20
-0.765503913569
 30
0.0
 11
2.963939164234
 21
-0.756598713569
 31
0.0
  0
LINE
  5
67C
  8
0
  6
CONTINUOUS
 62
     3
 10
2.963939164234
 20
-0.756598713569
 30
0.0
 11
2.958793864234
 21
-0.747949013569
 31
0.0
  0
LINE
  5
67D
  8
0
  6
CONTINUOUS
 62
     3
 10
2.958793864234
 20
-0.747949013569
 30
0.0
 11
2.952979264234
 21
-0.739739713569
 31
0.0
  0
LINE
  5
67E
  8
0
  6
CONTINUOUS
 62
     3
 10
2.952979264234
 20
-0.739739713569
 30
0.0
 11
2.931886364234
 21
-0.719376313569
 31
0.0
  0
LINE
  5
67F
  8
0
  6
CONTINUOUS
 62
     3
 10
2.931886364234
 20
-0.719376313569
 30
0.0
 11
2.918249364234
 21
-0.700203913569
 31
0.0
  0
LINE
  5
680
  8
0
  6
CONTINUOUS
 62
     3
 10
2.918249364234
 20
-0.700203913569
 30
0.0
 11
2.911127664234
 21
-0.683689813569
 31
0.0
  0
LINE
  5
681
  8
0
  6
CONTINUOUS
 62
     3
 10
2.911127664234
 20
-0.683689813569
 30
0.0
 11
2.909988964234
 21
-0.670716113569
 31
0.0
  0
LINE
  5
682
  8
0
  6
CONTINUOUS
 62
     3
 10
2.909988964234
 20
-0.670716113569
 30
0.0
 11
2.914204564234
 21
-0.662095513569
 31
0.0
  0
LINE
  5
683
  8
0
  6
CONTINUOUS
 62
     3
 10
2.914204564234
 20
-0.662095513569
 30
0.0
 11
2.975188764234
 21
-0.601111313569
 31
0.0
  0
LINE
  5
684
  8
0
  6
CONTINUOUS
 62
     3
 10
2.975188764234
 20
-0.601111313569
 30
0.0
 11
2.983809364234
 21
-0.596895713569
 31
0.0
  0
LINE
  5
685
  8
0
  6
CONTINUOUS
 62
     3
 10
2.983809364234
 20
-0.596895713569
 30
0.0
 11
2.996783064234
 21
-0.598034413569
 31
0.0
  0
LINE
  5
686
  8
0
  6
CONTINUOUS
 62
     3
 10
2.996783064234
 20
-0.598034413569
 30
0.0
 11
3.013297164234
 21
-0.605156113569
 31
0.0
  0
LINE
  5
687
  8
0
  6
CONTINUOUS
 62
     3
 10
3.013297164234
 20
-0.605156113569
 30
0.0
 11
3.032469564234
 21
-0.618793113569
 31
0.0
  0
LINE
  5
688
  8
0
  6
CONTINUOUS
 62
     3
 10
3.032469564234
 20
-0.618793113569
 30
0.0
 11
3.052832964234
 21
-0.639886013569
 31
0.0
  0
LINE
  5
689
  8
0
  6
CONTINUOUS
 62
     3
 10
3.052832964234
 20
-0.639886013569
 30
0.0
 11
3.061042264234
 21
-0.645700613569
 31
0.0
  0
LINE
  5
68A
  8
0
  6
CONTINUOUS
 62
     3
 10
3.061042264234
 20
-0.645700613569
 30
0.0
 11
3.069691964234
 21
-0.650845913569
 31
0.0
  0
LINE
  5
68B
  8
0
  6
CONTINUOUS
 62
     3
 10
3.069691964234
 20
-0.650845913569
 30
0.0
 11
3.078597164234
 21
-0.655536413569
 31
0.0
  0
LINE
  5
68C
  8
0
  6
CONTINUOUS
 62
     3
 10
3.078597164234
 20
-0.655536413569
 30
0.0
 11
3.087691364234
 21
-0.659849513569
 31
0.0
  0
LINE
  5
68D
  8
0
  6
CONTINUOUS
 62
     3
 10
3.087691364234
 20
-0.659849513569
 30
0.0
 11
3.096935864234
 21
-0.663830913569
 31
0.0
  0
LINE
  5
68E
  8
0
  6
CONTINUOUS
 62
     3
 10
3.096935864234
 20
-0.663830913569
 30
0.0
 11
3.106304164234
 21
-0.667511313569
 31
0.0
  0
LINE
  5
68F
  8
0
  6
CONTINUOUS
 62
     3
 10
3.106304164234
 20
-0.667511313569
 30
0.0
 11
3.115777064234
 21
-0.670914013569
 31
0.0
  0
LINE
  5
690
  8
0
  6
CONTINUOUS
 62
     3
 10
3.115777064234
 20
-0.670914013569
 30
0.0
 11
3.125339264234
 21
-0.674057113569
 31
0.0
  0
LINE
  5
691
  8
0
  6
CONTINUOUS
 62
     3
 10
3.125339264234
 20
-0.674057113569
 30
0.0
 11
3.134978664234
 21
-0.676955113569
 31
0.0
  0
LINE
  5
692
  8
0
  6
CONTINUOUS
 62
     3
 10
3.134978664234
 20
-0.676955113569
 30
0.0
 11
3.144684864234
 21
-0.679620413569
 31
0.0
  0
LINE
  5
693
  8
0
  6
CONTINUOUS
 62
     3
 10
3.144684864234
 20
-0.679620413569
 30
0.0
 11
3.154449464234
 21
-0.682063713569
 31
0.0
  0
LINE
  5
694
  8
0
  6
CONTINUOUS
 62
     3
 10
3.154449464234
 20
-0.682063713569
 30
0.0
 11
3.164264864234
 21
-0.684294013569
 31
0.0
  0
LINE
  5
695
  8
0
  6
CONTINUOUS
 62
     3
 10
3.164264864234
 20
-0.684294013569
 30
0.0
 11
3.174124664234
 21
-0.686319513569
 31
0.0
  0
LINE
  5
696
  8
0
  6
CONTINUOUS
 62
     3
 10
3.174124664234
 20
-0.686319513569
 30
0.0
 11
3.184022964234
 21
-0.688147313569
 31
0.0
  0
LINE
  5
697
  8
0
  6
CONTINUOUS
 62
     3
 10
3.184022964234
 20
-0.688147313569
 30
0.0
 11
3.234858264234
 21
-0.618178513569
 31
0.0
  0
LINE
  5
698
  8
0
  6
CONTINUOUS
 62
     3
 10
3.234858264234
 20
-0.618178513569
 30
0.0
 11
3.230061164234
 21
-0.609329513569
 31
0.0
  0
LINE
  5
699
  8
0
  6
CONTINUOUS
 62
     3
 10
3.230061164234
 20
-0.609329513569
 30
0.0
 11
3.225087964234
 21
-0.600578213569
 31
0.0
  0
LINE
  5
69A
  8
0
  6
CONTINUOUS
 62
     3
 10
3.225087964234
 20
-0.600578213569
 30
0.0
 11
3.219933664234
 21
-0.591932413569
 31
0.0
  0
LINE
  5
69B
  8
0
  6
CONTINUOUS
 62
     3
 10
3.219933664234
 20
-0.591932413569
 30
0.0
 11
3.214592564234
 21
-0.583400813569
 31
0.0
  0
LINE
  5
69C
  8
0
  6
CONTINUOUS
 62
     3
 10
3.214592564234
 20
-0.583400813569
 30
0.0
 11
3.209058264234
 21
-0.574993213569
 31
0.0
  0
LINE
  5
69D
  8
0
  6
CONTINUOUS
 62
     3
 10
3.209058264234
 20
-0.574993213569
 30
0.0
 11
3.203323364234
 21
-0.566721213569
 31
0.0
  0
LINE
  5
69E
  8
0
  6
CONTINUOUS
 62
     3
 10
3.203323364234
 20
-0.566721213569
 30
0.0
 11
3.197379364234
 21
-0.558598213569
 31
0.0
  0
LINE
  5
69F
  8
0
  6
CONTINUOUS
 62
     3
 10
3.197379364234
 20
-0.558598213569
 30
0.0
 11
3.191215864234
 21
-0.550640513569
 31
0.0
  0
LINE
  5
6A0
  8
0
  6
CONTINUOUS
 62
     3
 10
3.191215864234
 20
-0.550640513569
 30
0.0
 11
3.184820564234
 21
-0.542867913569
 31
0.0
  0
LINE
  5
6A1
  8
0
  6
CONTINUOUS
 62
     3
 10
3.184820564234
 20
-0.542867913569
 30
0.0
 11
3.178177364234
 21
-0.535306213569
 31
0.0
  0
LINE
  5
6A2
  8
0
  6
CONTINUOUS
 62
     3
 10
3.178177364234
 20
-0.535306213569
 30
0.0
 11
3.171265064234
 21
-0.527990013569
 31
0.0
  0
LINE
  5
6A3
  8
0
  6
CONTINUOUS
 62
     3
 10
3.171265064234
 20
-0.527990013569
 30
0.0
 11
3.164052364234
 21
-0.520970013569
 31
0.0
  0
LINE
  5
6A4
  8
0
  6
CONTINUOUS
 62
     3
 10
3.164052364234
 20
-0.520970013569
 30
0.0
 11
3.156485964234
 21
-0.514333713569
 31
0.0
  0
LINE
  5
6A5
  8
0
  6
CONTINUOUS
 62
     3
 10
3.156485964234
 20
-0.514333713569
 30
0.0
 11
3.148419064234
 21
-0.508322913569
 31
0.0
  0
LINE
  5
6A6
  8
0
  6
CONTINUOUS
 62
     3
 10
3.148419064234
 20
-0.508322913569
 30
0.0
 11
3.122065964234
 21
-0.495474313569
 31
0.0
  0
LINE
  5
6A7
  8
0
  6
CONTINUOUS
 62
     3
 10
3.122065964234
 20
-0.495474313569
 30
0.0
 11
3.103171764234
 21
-0.481454413569
 31
0.0
  0
LINE
  5
6A8
  8
0
  6
CONTINUOUS
 62
     3
 10
3.103171764234
 20
-0.481454413569
 30
0.0
 11
3.091295464234
 21
-0.467949213569
 31
0.0
  0
LINE
  5
6A9
  8
0
  6
CONTINUOUS
 62
     3
 10
3.091295464234
 20
-0.467949213569
 30
0.0
 11
3.086203464234
 21
-0.455962413569
 31
0.0
  0
LINE
  5
6AA
  8
0
  6
CONTINUOUS
 62
     3
 10
3.086203464234
 20
-0.455962413569
 30
0.0
 11
3.087548764234
 21
-0.446461013569
 31
0.0
  0
LINE
  5
6AB
  8
0
  6
CONTINUOUS
 62
     3
 10
3.087548764234
 20
-0.446461013569
 30
0.0
 11
3.126702964234
 21
-0.369616413569
 31
0.0
  0
LINE
  5
6AC
  8
0
  6
CONTINUOUS
 62
     3
 10
3.126702964234
 20
-0.369616413569
 30
0.0
 11
3.133599064234
 21
-0.362943213569
 31
0.0
  0
LINE
  5
6AD
  8
0
  6
CONTINUOUS
 62
     3
 10
3.133599064234
 20
-0.362943213569
 30
0.0
 11
3.146289664234
 21
-0.360017113569
 31
0.0
  0
LINE
  5
6AE
  8
0
  6
CONTINUOUS
 62
     3
 10
3.146289664234
 20
-0.360017113569
 30
0.0
 11
3.164196264234
 21
-0.361687113569
 31
0.0
  0
LINE
  5
6AF
  8
0
  6
CONTINUOUS
 62
     3
 10
3.164196264234
 20
-0.361687113569
 30
0.0
 11
3.186644364234
 21
-0.368732113569
 31
0.0
  0
LINE
  5
6B0
  8
0
  6
CONTINUOUS
 62
     3
 10
3.186644364234
 20
-0.368732113569
 30
0.0
 11
3.212529064234
 21
-0.382500013569
 31
0.0
  0
LINE
  5
6B1
  8
0
  6
CONTINUOUS
 62
     3
 10
3.212529064234
 20
-0.382500013569
 30
0.0
 11
3.222133464234
 21
-0.385493213569
 31
0.0
  0
LINE
  5
6B2
  8
0
  6
CONTINUOUS
 62
     3
 10
3.222133464234
 20
-0.385493213569
 30
0.0
 11
3.231949764234
 21
-0.387713813569
 31
0.0
  0
LINE
  5
6B3
  8
0
  6
CONTINUOUS
 62
     3
 10
3.231949764234
 20
-0.387713813569
 30
0.0
 11
3.241868564234
 21
-0.389422813569
 31
0.0
  0
LINE
  5
6B4
  8
0
  6
CONTINUOUS
 62
     3
 10
3.241868564234
 20
-0.389422813569
 30
0.0
 11
3.251850464234
 21
-0.390714613569
 31
0.0
  0
LINE
  5
6B5
  8
0
  6
CONTINUOUS
 62
     3
 10
3.251850464234
 20
-0.390714613569
 30
0.0
 11
3.261872764234
 21
-0.391644413569
 31
0.0
  0
LINE
  5
6B6
  8
0
  6
CONTINUOUS
 62
     3
 10
3.261872764234
 20
-0.391644413569
 30
0.0
 11
3.271919964234
 21
-0.392249713569
 31
0.0
  0
LINE
  5
6B7
  8
0
  6
CONTINUOUS
 62
     3
 10
3.271919964234
 20
-0.392249713569
 30
0.0
 11
3.281980664234
 21
-0.392558613569
 31
0.0
  0
LINE
  5
6B8
  8
0
  6
CONTINUOUS
 62
     3
 10
3.281980664234
 20
-0.392558613569
 30
0.0
 11
3.292046164234
 21
-0.392592913569
 31
0.0
  0
LINE
  5
6B9
  8
0
  6
CONTINUOUS
 62
     3
 10
3.292046164234
 20
-0.392592913569
 30
0.0
 11
3.302109264234
 21
-0.392370413569
 31
0.0
  0
LINE
  5
6BA
  8
0
  6
CONTINUOUS
 62
     3
 10
3.302109264234
 20
-0.392370413569
 30
0.0
 11
3.312164164234
 21
-0.391905913569
 31
0.0
  0
LINE
  5
6BB
  8
0
  6
CONTINUOUS
 62
     3
 10
3.312164164234
 20
-0.391905913569
 30
0.0
 11
3.322205764234
 21
-0.391212113569
 31
0.0
  0
LINE
  5
6BC
  8
0
  6
CONTINUOUS
 62
     3
 10
3.322205764234
 20
-0.391212113569
 30
0.0
 11
3.332229964234
 21
-0.390300213569
 31
0.0
  0
LINE
  5
6BD
  8
0
  6
CONTINUOUS
 62
     3
 10
3.332229964234
 20
-0.390300213569
 30
0.0
 11
3.342233064234
 21
-0.389179713569
 31
0.0
  0
LINE
  5
6BE
  8
0
  6
CONTINUOUS
 62
     3
 10
3.342233064234
 20
-0.389179713569
 30
0.0
 11
3.352211764234
 21
-0.387859313569
 31
0.0
  0
LINE
  5
6BF
  8
0
  6
CONTINUOUS
 62
     3
 10
3.352211764234
 20
-0.387859313569
 30
0.0
 11
3.378937464234
 21
-0.305606013569
 31
0.0
  0
LINE
  5
6C0
  8
0
  6
CONTINUOUS
 62
     3
 10
3.378937464234
 20
-0.305606013569
 30
0.0
 11
3.371640664234
 21
-0.298672513569
 31
0.0
  0
LINE
  5
6C1
  8
0
  6
CONTINUOUS
 62
     3
 10
3.371640664234
 20
-0.298672513569
 30
0.0
 11
3.364206564234
 21
-0.291886313569
 31
0.0
  0
LINE
  5
6C2
  8
0
  6
CONTINUOUS
 62
     3
 10
3.364206564234
 20
-0.291886313569
 30
0.0
 11
3.356632864234
 21
-0.285256413569
 31
0.0
  0
LINE
  5
6C3
  8
0
  6
CONTINUOUS
 62
     3
 10
3.356632864234
 20
-0.285256413569
 30
0.0
 11
3.348916764234
 21
-0.278792913569
 31
0.0
  0
LINE
  5
6C4
  8
0
  6
CONTINUOUS
 62
     3
 10
3.348916764234
 20
-0.278792913569
 30
0.0
 11
3.341055264234
 21
-0.272507013569
 31
0.0
  0
LINE
  5
6C5
  8
0
  6
CONTINUOUS
 62
     3
 10
3.341055264234
 20
-0.272507013569
 30
0.0
 11
3.333044864234
 21
-0.266412013569
 31
0.0
  0
LINE
  5
6C6
  8
0
  6
CONTINUOUS
 62
     3
 10
3.333044864234
 20
-0.266412013569
 30
0.0
 11
3.324881564234
 21
-0.260523413569
 31
0.0
  0
LINE
  5
6C7
  8
0
  6
CONTINUOUS
 62
     3
 10
3.324881564234
 20
-0.260523413569
 30
0.0
 11
3.316560664234
 21
-0.254859813569
 31
0.0
  0
LINE
  5
6C8
  8
0
  6
CONTINUOUS
 62
     3
 10
3.316560664234
 20
-0.254859813569
 30
0.0
 11
3.308076464234
 21
-0.249443913569
 31
0.0
  0
LINE
  5
6C9
  8
0
  6
CONTINUOUS
 62
     3
 10
3.308076464234
 20
-0.249443913569
 30
0.0
 11
3.299421764234
 21
-0.244305213569
 31
0.0
  0
LINE
  5
6CA
  8
0
  6
CONTINUOUS
 62
     3
 10
3.299421764234
 20
-0.244305213569
 30
0.0
 11
3.290586964234
 21
-0.239483013569
 31
0.0
  0
LINE
  5
6CB
  8
0
  6
CONTINUOUS
 62
     3
 10
3.290586964234
 20
-0.239483013569
 30
0.0
 11
3.281557964234
 21
-0.235035513569
 31
0.0
  0
LINE
  5
6CC
  8
0
  6
CONTINUOUS
 62
     3
 10
3.281557964234
 20
-0.235035513569
 30
0.0
 11
3.272311164234
 21
-0.231062113569
 31
0.0
  0
LINE
  5
6CD
  8
0
  6
CONTINUOUS
 62
     3
 10
3.272311164234
 20
-0.231062113569
 30
0.0
 11
3.262781764234
 21
-0.227838313569
 31
0.0
  0
LINE
  5
6CE
  8
0
  6
CONTINUOUS
 62
     3
 10
3.262781764234
 20
-0.227838313569
 30
0.0
 11
3.233747964234
 21
-0.223762213569
 31
0.0
  0
LINE
  5
6CF
  8
0
  6
CONTINUOUS
 62
     3
 10
3.233747964234
 20
-0.223762213569
 30
0.0
 11
3.211446064234
 21
-0.216267013569
 31
0.0
  0
LINE
  5
6D0
  8
0
  6
CONTINUOUS
 62
     3
 10
3.211446064234
 20
-0.216267013569
 30
0.0
 11
3.195977764234
 21
-0.207092813569
 31
0.0
  0
LINE
  5
6D1
  8
0
  6
CONTINUOUS
 62
     3
 10
3.195977764234
 20
-0.207092813569
 30
0.0
 11
3.187430764234
 21
-0.197266213569
 31
0.0
  0
LINE
  5
6D2
  8
0
  6
CONTINUOUS
 62
     3
 10
3.187430764234
 20
-0.197266213569
 30
0.0
 11
3.185774164234
 21
-0.187814113569
 31
0.0
  0
LINE
  5
6D3
  8
0
  6
CONTINUOUS
 62
     3
 10
3.185774164234
 20
-0.187814113569
 30
0.0
 11
3.199265764234
 21
-0.102631213569
 31
0.0
  0
LINE
  5
6D4
  8
STANDARD
  6
CONTINUOUS
 62
     3
 10
-1.0992294
 20
0.0
 30
0.0
 11
1.0992294
 21
0.0
 31
0.0
  0
LINE
  5
6D5
  8
STANDARD
  6
CONTINUOUS
 62
     3
 10
1.220915964234
 20
-0.007052113569
 30
0.0
 11
3.419374764234
 21
-0.007052113569
 31
0.0
  0
LINE
  5
6D6
  8
STANDARD
  6
CONTINUOUS
 62
     3
 10
0.0
 20
1.0992294
 30
0.0
 11
0.0
 21
-1.0992294
 31
0.0
  0
LINE
  5
6D7
  8
STANDARD
  6
CONTINUOUS
 62
     3
 10
2.320145364234
 20
1.092177286431
 30
0.0
 11
2.320145364234
 21
-1.106281513569
 31
0.0
  0
ENDSEC
  0
EOF
